  0
SECTION
  2
HEADER
  9
$ACADVER
  1
AC1024
  9
$ACADMAINTVER
 70
    63
  9
$DWGCODEPAGE
  3
ANSI_932
  9
$LASTSAVEDBY
  1
kaihatsu004
  9
$INSBASE
 10
0.0
 20
0.0
 30
0.0
  9
$EXTMIN
 10
10.95803903434193
 20
7.53982593717501
 30
-0.0015258207003583
  9
$EXTMAX
 10
285.9739844433195
 20
200.0569157605722
 30
0.0000000349246037
  9
$LIMMIN
 10
0.0
 20
0.0
  9
$LIMMAX
 10
297.0
 20
210.0
  9
$ORTHOMODE
 70
     0
  9
$REGENMODE
 70
     1
  9
$FILLMODE
 70
     1
  9
$QTEXTMODE
 70
     0
  9
$MIRRTEXT
 70
     0
  9
$LTSCALE
 40
1.0
  9
$ATTMODE
 70
     1
  9
$TEXTSIZE
 40
2.0
  9
$TRACEWID
 40
0.05
  9
$TEXTSTYLE
  7
STANDARD
  9
$CLAYER
  8
0
  9
$CELTYPE
  6
CONTINUOUS
  9
$CECOLOR
 62
   256
  9
$CELTSCALE
 40
1.0
  9
$DISPSILH
 70
     0
  9
$DIMSCALE
 40
1.0
  9
$DIMASZ
 40
0.18
  9
$DIMEXO
 40
0.0625
  9
$DIMDLI
 40
0.38
  9
$DIMRND
 40
0.0
  9
$DIMDLE
 40
0.0
  9
$DIMEXE
 40
0.18
  9
$DIMTP
 40
0.0
  9
$DIMTM
 40
0.0
  9
$DIMTXT
 40
0.18
  9
$DIMCEN
 40
0.09
  9
$DIMTSZ
 40
0.0
  9
$DIMTOL
 70
     0
  9
$DIMLIM
 70
     0
  9
$DIMTIH
 70
     1
  9
$DIMTOH
 70
     1
  9
$DIMSE1
 70
     0
  9
$DIMSE2
 70
     0
  9
$DIMTAD
 70
     0
  9
$DIMZIN
 70
     0
  9
$DIMBLK
  1

  9
$DIMASO
 70
     1
  9
$DIMSHO
 70
     1
  9
$DIMPOST
  1

  9
$DIMAPOST
  1

  9
$DIMALT
 70
     0
  9
$DIMALTD
 70
     2
  9
$DIMALTF
 40
25.4
  9
$DIMLFAC
 40
1.0
  9
$DIMTOFL
 70
     0
  9
$DIMTVP
 40
0.0
  9
$DIMTIX
 70
     0
  9
$DIMSOXD
 70
     0
  9
$DIMSAH
 70
     0
  9
$DIMBLK1
  1

  9
$DIMBLK2
  1

  9
$DIMSTYLE
  2
Standard
  9
$DIMCLRD
 70
     0
  9
$DIMCLRE
 70
     0
  9
$DIMCLRT
 70
     0
  9
$DIMTFAC
 40
1.0
  9
$DIMGAP
 40
0.09
  9
$DIMJUST
 70
     0
  9
$DIMSD1
 70
     0
  9
$DIMSD2
 70
     0
  9
$DIMTOLJ
 70
     1
  9
$DIMTZIN
 70
     0
  9
$DIMALTZ
 70
     0
  9
$DIMALTTZ
 70
     0
  9
$DIMUPT
 70
     0
  9
$DIMDEC
 70
     4
  9
$DIMTDEC
 70
     4
  9
$DIMALTU
 70
     2
  9
$DIMALTTD
 70
     2
  9
$DIMTXSTY
  7
STANDARD
  9
$DIMAUNIT
 70
     0
  9
$DIMADEC
 70
     0
  9
$DIMALTRND
 40
0.0
  9
$DIMAZIN
 70
     0
  9
$DIMDSEP
 70
    46
  9
$DIMATFIT
 70
     3
  9
$DIMFRAC
 70
     0
  9
$DIMLDRBLK
  1

  9
$DIMLUNIT
 70
     2
  9
$DIMLWD
 70
    -2
  9
$DIMLWE
 70
    -2
  9
$DIMTMOVE
 70
     0
  9
$DIMFXL
 40
1.0
  9
$DIMFXLON
 70
     0
  9
$DIMJOGANG
 40
0.7853981633974483
  9
$DIMTFILL
 70
     0
  9
$DIMTFILLCLR
 70
     0
  9
$DIMARCSYM
 70
     0
  9
$DIMLTYPE
  6

  9
$DIMLTEX1
  6

  9
$DIMLTEX2
  6

  9
$DIMTXTDIRECTION
 70
     0
  9
$LUNITS
 70
     2
  9
$LUPREC
 70
     4
  9
$SKETCHINC
 40
0.1
  9
$FILLETRAD
 40
0.0
  9
$AUNITS
 70
     0
  9
$AUPREC
 70
     0
  9
$MENU
  1
.
  9
$ELEVATION
 40
0.0
  9
$PELEVATION
 40
0.0
  9
$THICKNESS
 40
0.0
  9
$LIMCHECK
 70
     0
  9
$CHAMFERA
 40
0.0
  9
$CHAMFERB
 40
0.0
  9
$CHAMFERC
 40
0.0
  9
$CHAMFERD
 40
0.0
  9
$SKPOLY
 70
     0
  9
$TDCREATE
 40
2457325.634158056
  9
$TDUCREATE
 40
2457325.259158056
  9
$TDUPDATE
 40
2457325.634740266
  9
$TDUUPDATE
 40
2457325.259740266
  9
$TDINDWG
 40
0.0005823032
  9
$TDUSRTIMER
 40
0.0005823032
  9
$USRTIMER
 70
     1
  9
$ANGBASE
 50
0.0
  9
$ANGDIR
 70
     0
  9
$PDMODE
 70
     0
  9
$PDSIZE
 40
0.0
  9
$PLINEWID
 40
0.0
  9
$SPLFRAME
 70
     0
  9
$SPLINETYPE
 70
     6
  9
$SPLINESEGS
 70
     8
  9
$HANDSEED
  5
491
  9
$SURFTAB1
 70
     6
  9
$SURFTAB2
 70
     6
  9
$SURFTYPE
 70
     6
  9
$SURFU
 70
     6
  9
$SURFV
 70
     6
  9
$UCSBASE
  2

  9
$UCSNAME
  2

  9
$UCSORG
 10
0.0
 20
0.0
 30
0.0
  9
$UCSXDIR
 10
1.0
 20
0.0
 30
0.0
  9
$UCSYDIR
 10
0.0
 20
1.0
 30
0.0
  9
$UCSORTHOREF
  2

  9
$UCSORTHOVIEW
 70
     0
  9
$UCSORGTOP
 10
0.0
 20
0.0
 30
0.0
  9
$UCSORGBOTTOM
 10
0.0
 20
0.0
 30
0.0
  9
$UCSORGLEFT
 10
0.0
 20
0.0
 30
0.0
  9
$UCSORGRIGHT
 10
0.0
 20
0.0
 30
0.0
  9
$UCSORGFRONT
 10
0.0
 20
0.0
 30
0.0
  9
$UCSORGBACK
 10
0.0
 20
0.0
 30
0.0
  9
$PUCSBASE
  2

  9
$PUCSNAME
  2

  9
$PUCSORG
 10
0.0
 20
0.0
 30
0.0
  9
$PUCSXDIR
 10
1.0
 20
0.0
 30
0.0
  9
$PUCSYDIR
 10
0.0
 20
1.0
 30
0.0
  9
$PUCSORTHOREF
  2

  9
$PUCSORTHOVIEW
 70
     0
  9
$PUCSORGTOP
 10
0.0
 20
0.0
 30
0.0
  9
$PUCSORGBOTTOM
 10
0.0
 20
0.0
 30
0.0
  9
$PUCSORGLEFT
 10
0.0
 20
0.0
 30
0.0
  9
$PUCSORGRIGHT
 10
0.0
 20
0.0
 30
0.0
  9
$PUCSORGFRONT
 10
0.0
 20
0.0
 30
0.0
  9
$PUCSORGBACK
 10
0.0
 20
0.0
 30
0.0
  9
$USERI1
 70
     0
  9
$USERI2
 70
     0
  9
$USERI3
 70
     0
  9
$USERI4
 70
     0
  9
$USERI5
 70
     0
  9
$USERR1
 40
0.0
  9
$USERR2
 40
0.0
  9
$USERR3
 40
0.0
  9
$USERR4
 40
0.0
  9
$USERR5
 40
0.0
  9
$WORLDVIEW
 70
     1
  9
$SHADEDGE
 70
     3
  9
$SHADEDIF
 70
    70
  9
$TILEMODE
 70
     1
  9
$MAXACTVP
 70
    64
  9
$PINSBASE
 10
0.0
 20
0.0
 30
0.0
  9
$PLIMCHECK
 70
     0
  9
$PEXTMIN
 10
1.000000000000000E+20
 20
1.000000000000000E+20
 30
1.000000000000000E+20
  9
$PEXTMAX
 10
-1.000000000000000E+20
 20
-1.000000000000000E+20
 30
-1.000000000000000E+20
  9
$PLIMMIN
 10
0.0
 20
0.0
  9
$PLIMMAX
 10
12.0
 20
9.0
  9
$UNITMODE
 70
     0
  9
$VISRETAIN
 70
     1
  9
$PLINEGEN
 70
     0
  9
$PSLTSCALE
 70
     1
  9
$TREEDEPTH
 70
  3020
  9
$CMLSTYLE
  2
Standard
  9
$CMLJUST
 70
     0
  9
$CMLSCALE
 40
1.0
  9
$PROXYGRAPHICS
 70
     1
  9
$MEASUREMENT
 70
     0
  9
$CELWEIGHT
370
    -1
  9
$ENDCAPS
280
     0
  9
$JOINSTYLE
280
     0
  9
$LWDISPLAY
290
     0
  9
$INSUNITS
 70
     0
  9
$HYPERLINKBASE
  1

  9
$STYLESHEET
  1

  9
$XEDIT
290
     1
  9
$CEPSNTYPE
380
     0
  9
$PSTYLEMODE
290
     1
  9
$FINGERPRINTGUID
  2
{CF38A96C-78BA-490B-8E2A-E7327C0949A0}
  9
$VERSIONGUID
  2
{6E083333-1546-446A-B97A-68643422E845}
  9
$EXTNAMES
290
     1
  9
$PSVPSCALE
 40
0.0
  9
$OLESTARTUP
290
     0
  9
$SORTENTS
280
   127
  9
$INDEXCTL
280
     0
  9
$HIDETEXT
280
     0
  9
$XCLIPFRAME
280
     2
  9
$HALOGAP
280
     0
  9
$OBSCOLOR
 70
   257
  9
$OBSLTYPE
280
     0
  9
$INTERSECTIONDISPLAY
280
     0
  9
$INTERSECTIONCOLOR
 70
   257
  9
$DIMASSOC
280
     1
  9
$PROJECTNAME
  1

  9
$CAMERADISPLAY
290
     0
  9
$LENSLENGTH
 40
50.0
  9
$CAMERAHEIGHT
 40
0.0
  9
$STEPSPERSEC
 40
2.0
  9
$STEPSIZE
 40
6.0
  9
$3DDWFPREC
 40
2.0
  9
$PSOLWIDTH
 40
0.25
  9
$PSOLHEIGHT
 40
4.0
  9
$LOFTANG1
 40
1.570796326794896
  9
$LOFTANG2
 40
1.570796326794896
  9
$LOFTMAG1
 40
0.0
  9
$LOFTMAG2
 40
0.0
  9
$LOFTPARAM
 70
     7
  9
$LOFTNORMALS
280
     1
  9
$LATITUDE
 40
37.795
  9
$LONGITUDE
 40
-122.394
  9
$NORTHDIRECTION
 40
0.0
  9
$TIMEZONE
 70
 -8000
  9
$LIGHTGLYPHDISPLAY
280
     1
  9
$TILEMODELIGHTSYNCH
280
     1
  9
$CMATERIAL
347
11
  9
$SOLIDHIST
280
     0
  9
$SHOWHIST
280
     1
  9
$DWFFRAME
280
     2
  9
$DGNFRAME
280
     0
  9
$REALWORLDSCALE
290
     1
  9
$INTERFERECOLOR
 62
     1
  9
$INTERFEREOBJVS
345
33
  9
$INTERFEREVPVS
346
30
  9
$CSHADOW
280
     0
  9
$SHADOWPLANELOCATION
 40
0.0
  0
ENDSEC
  0
SECTION
  2
CLASSES
  0
CLASS
  1
ACDBDICTIONARYWDFLT
  2
AcDbDictionaryWithDefault
  3
ObjectDBX Classes
 90
        0
 91
        1
280
     0
281
     0
  0
CLASS
  1
MATERIAL
  2
AcDbMaterial
  3
ObjectDBX Classes
 90
     1153
 91
        3
280
     0
281
     0
  0
CLASS
  1
VISUALSTYLE
  2
AcDbVisualStyle
  3
ObjectDBX Classes
 90
     4095
 91
       24
280
     0
281
     0
  0
CLASS
  1
SCALE
  2
AcDbScale
  3
ObjectDBX Classes
 90
     1153
 91
       17
280
     0
281
     0
  0
CLASS
  1
TABLESTYLE
  2
AcDbTableStyle
  3
ObjectDBX Classes
 90
     4095
 91
        1
280
     0
281
     0
  0
CLASS
  1
MLEADERSTYLE
  2
AcDbMLeaderStyle
  3
ACDB_MLEADERSTYLE_CLASS
 90
     4095
 91
        1
280
     0
281
     0
  0
CLASS
  1
DICTIONARYVAR
  2
AcDbDictionaryVar
  3
ObjectDBX Classes
 90
        0
 91
        7
280
     0
281
     0
  0
CLASS
  1
CELLSTYLEMAP
  2
AcDbCellStyleMap
  3
ObjectDBX Classes
 90
     1152
 91
        1
280
     0
281
     0
  0
ENDSEC
  0
SECTION
  2
TABLES
  0
TABLE
  2
VPORT
  5
8
330
0
100
AcDbSymbolTable
 70
     1
  0
VPORT
  5
8C
330
8
100
AcDbSymbolTableRecord
100
AcDbViewportTableRecord
  2
*Active
 70
     0
 10
0.0
 20
0.0
 11
1.0
 21
1.0
 12
148.4660117388307
 22
103.7983708488736
 13
0.0
 23
0.0
 14
1.0
 24
1.0
 15
0.0
 25
0.0
 16
0.0
 26
0.0
 36
1.0
 17
0.0
 27
0.0
 37
0.0
 40
193.962775103673
 41
2.37844611528822
 42
50.0
 43
0.0
 44
0.0
 50
0.0
 51
0.0
 71
     0
 72
   100
 73
     1
 74
     1
 75
     0
 76
     0
 77
     0
 78
     0
281
     0
 65
     1
110
0.0
120
0.0
130
0.0
111
1.0
121
0.0
131
0.0
112
0.0
122
1.0
132
0.0
 79
     0
146
0.0
348
2F
 60
     3
 61
     5
292
     1
282
     1
141
0.0
142
0.0
 63
   250
421
  3355443
1001
ACAD_NAV_VCDISPLAY
1070
     3
  0
ENDTAB
  0
TABLE
  2
LTYPE
  5
5
330
0
100
AcDbSymbolTable
 70
    21
  0
LTYPE
  5
5A
330
5
100
AcDbSymbolTableRecord
100
AcDbLinetypeTableRecord
  2
ByBlock
 70
     0
  3

 72
    65
 73
     0
 40
0.0
  0
LTYPE
  5
5B
330
5
100
AcDbSymbolTableRecord
100
AcDbLinetypeTableRecord
  2
ByLayer
 70
     0
  3

 72
    65
 73
     0
 40
0.0
  0
LTYPE
  5
5C
330
5
100
AcDbSymbolTableRecord
100
AcDbLinetypeTableRecord
  2
CONTINUOUS
 70
     0
  3
実線
 72
    65
 73
     0
 40
0.0
  0
LTYPE
  5
6F
330
5
100
AcDbSymbolTableRecord
100
AcDbLinetypeTableRecord
  2
DASHED1
 70
     0
  3
--  --  --  --  --  --  --  --  
 72
    65
 73
     2
 40
2.5
 49
1.25
 74
     0
 49
-1.25
 74
     0
  0
LTYPE
  5
70
330
5
100
AcDbSymbolTableRecord
100
AcDbLinetypeTableRecord
  2
DASHED2
 70
     0
  3
----    ----    ----    ----    
 72
    65
 73
     2
 40
5.0
 49
2.5
 74
     0
 49
-2.5
 74
     0
  0
LTYPE
  5
71
330
5
100
AcDbSymbolTableRecord
100
AcDbLinetypeTableRecord
  2
DASHED3
 70
     0
  3
------  ------  ------  ------  
 72
    65
 73
     2
 40
5.0
 49
3.75
 74
     0
 49
-1.25
 74
     0
  0
LTYPE
  5
72
330
5
100
AcDbSymbolTableRecord
100
AcDbLinetypeTableRecord
  2
CENTER1
 70
     0
  3
----- - ----- - ----- - ----- - 
 72
    65
 73
     4
 40
10.0
 49
6.25
 74
     0
 49
-1.25
 74
     0
 49
1.25
 74
     0
 49
-1.25
 74
     0
  0
LTYPE
  5
73
330
5
100
AcDbSymbolTableRecord
100
AcDbLinetypeTableRecord
  2
CENTER2
 70
     0
  3
----------  --  ----------  --  
 72
    65
 73
     4
 40
20.0
 49
12.5
 74
     0
 49
-2.5
 74
     0
 49
2.5
 74
     0
 49
-2.5
 74
     0
  0
LTYPE
  5
74
330
5
100
AcDbSymbolTableRecord
100
AcDbLinetypeTableRecord
  2
PHANTOM1
 70
     0
  3
--- - - --- - - --- - - --- - - 
 72
    65
 73
     6
 40
10.0
 49
3.25
 74
     0
 49
-1.25
 74
     0
 49
1.25
 74
     0
 49
-1.25
 74
     0
 49
1.25
 74
     0
 49
-1.25
 74
     0
  0
LTYPE
  5
75
330
5
100
AcDbSymbolTableRecord
100
AcDbLinetypeTableRecord
  2
PHANTOM2
 70
     0
  3
--------  -  -  --------  -  -  
 72
    65
 73
     6
 40
20.0
 49
10.0
 74
     0
 49
-2.5
 74
     0
 49
1.25
 74
     0
 49
-2.5
 74
     0
 49
1.25
 74
     0
 49
-2.5
 74
     0
  0
LTYPE
  5
76
330
5
100
AcDbSymbolTableRecord
100
AcDbLinetypeTableRecord
  2
DOT
 70
     0
  3
-   -   -   -   -   -   -   -   
 72
    65
 73
     2
 40
2.5
 49
0.625
 74
     0
 49
-1.875
 74
     0
  0
LTYPE
  5
77
330
5
100
AcDbSymbolTableRecord
100
AcDbLinetypeTableRecord
  2
DUMMY
 70
     0
  3
ダミー
 72
    65
 73
     0
 40
0.0
  0
LTYPE
  5
78
330
5
100
AcDbSymbolTableRecord
100
AcDbLinetypeTableRecord
  2
RAND1
 70
     0
  3
----- - ----- - ----- - ----- - 
 72
    65
 73
     4
 40
10.0
 49
6.25
 74
     0
 49
-1.25
 74
     0
 49
1.25
 74
     0
 49
-1.25
 74
     0
  0
LTYPE
  5
79
330
5
100
AcDbSymbolTableRecord
100
AcDbLinetypeTableRecord
  2
RAND2
 70
     0
  3
----------  --  ----------  --  
 72
    65
 73
     4
 40
20.0
 49
12.5
 74
     0
 49
-2.5
 74
     0
 49
2.5
 74
     0
 49
-2.5
 74
     0
  0
LTYPE
  5
7A
330
5
100
AcDbSymbolTableRecord
100
AcDbLinetypeTableRecord
  2
RAND3
 70
     0
  3
--- - - --- - - --- - - --- - - 
 72
    65
 73
     6
 40
10.0
 49
3.25
 74
     0
 49
-1.25
 74
     0
 49
1.25
 74
     0
 49
-1.25
 74
     0
 49
1.25
 74
     0
 49
-1.25
 74
     0
  0
LTYPE
  5
7B
330
5
100
AcDbSymbolTableRecord
100
AcDbLinetypeTableRecord
  2
RAND4
 70
     0
  3
--------  -  -  --------  -  -  
 72
    65
 73
     6
 40
20.0
 49
10.0
 74
     0
 49
-2.5
 74
     0
 49
1.25
 74
     0
 49
-2.5
 74
     0
 49
1.25
 74
     0
 49
-2.5
 74
     0
  0
LTYPE
  5
7C
330
5
100
AcDbSymbolTableRecord
100
AcDbLinetypeTableRecord
  2
RAND5
 70
     0
  3
----- - ----- - ----- - ----- - 
 72
    65
 73
     4
 40
10.0
 49
6.25
 74
     0
 49
-1.25
 74
     0
 49
1.25
 74
     0
 49
-1.25
 74
     0
  0
LTYPE
  5
7D
330
5
100
AcDbSymbolTableRecord
100
AcDbLinetypeTableRecord
  2
LONG1
 70
     0
  3
----------  --  ----------  --  
 72
    65
 73
     4
 40
20.0
 49
12.5
 74
     0
 49
-2.5
 74
     0
 49
2.5
 74
     0
 49
-2.5
 74
     0
  0
LTYPE
  5
7E
330
5
100
AcDbSymbolTableRecord
100
AcDbLinetypeTableRecord
  2
LONG2
 70
     0
  3
--- - - --- - - --- - - --- - - 
 72
    65
 73
     6
 40
10.0
 49
3.25
 74
     0
 49
-1.25
 74
     0
 49
1.25
 74
     0
 49
-1.25
 74
     0
 49
1.25
 74
     0
 49
-1.25
 74
     0
  0
LTYPE
  5
7F
330
5
100
AcDbSymbolTableRecord
100
AcDbLinetypeTableRecord
  2
LONG3
 70
     0
  3
--------  -  -  --------  -  -  
 72
    65
 73
     6
 40
20.0
 49
10.0
 74
     0
 49
-2.5
 74
     0
 49
1.25
 74
     0
 49
-2.5
 74
     0
 49
1.25
 74
     0
 49
-2.5
 74
     0
  0
LTYPE
  5
80
330
5
100
AcDbSymbolTableRecord
100
AcDbLinetypeTableRecord
  2
LONG4
 70
     0
  3
----- - ----- - ----- - ----- - 
 72
    65
 73
     4
 40
10.0
 49
6.25
 74
     0
 49
-1.25
 74
     0
 49
1.25
 74
     0
 49
-1.25
 74
     0
  0
LTYPE
  5
81
330
5
100
AcDbSymbolTableRecord
100
AcDbLinetypeTableRecord
  2
LONG5
 70
     0
  3
----------  --  ----------  --  
 72
    65
 73
     4
 40
20.0
 49
12.5
 74
     0
 49
-2.5
 74
     0
 49
2.5
 74
     0
 49
-2.5
 74
     0
  0
ENDTAB
  0
TABLE
  2
LAYER
  5
2
330
0
100
AcDbSymbolTable
 70
     8
  0
LAYER
  5
54
102
{ACAD_XDICTIONARY
360
475
102
}
330
2
100
AcDbSymbolTableRecord
100
AcDbLayerTableRecord
  2
0
 70
     0
 62
     7
  6
CONTINUOUS
370
    -3
390
F
347
21
  0
LAYER
  5
83
102
{ACAD_XDICTIONARY
360
477
102
}
330
2
100
AcDbSymbolTableRecord
100
AcDbLayerTableRecord
  2
_1-0_中心線
 70
     0
 62
     7
  6
CONTINUOUS
370
    -3
390
F
347
21
  0
LAYER
  5
84
102
{ACAD_XDICTIONARY
360
479
102
}
330
2
100
AcDbSymbolTableRecord
100
AcDbLayerTableRecord
  2
_1-3_太線２
 70
     0
 62
     7
  6
CONTINUOUS
370
    -3
390
F
347
21
  0
LAYER
  5
85
102
{ACAD_XDICTIONARY
360
47B
102
}
330
2
100
AcDbSymbolTableRecord
100
AcDbLayerTableRecord
  2
_1-6_文字
 70
     0
 62
     7
  6
CONTINUOUS
370
    -3
390
F
347
21
  0
LAYER
  5
86
102
{ACAD_XDICTIONARY
360
47D
102
}
330
2
100
AcDbSymbolTableRecord
100
AcDbLayerTableRecord
  2
_F-3_太線２
 70
     0
 62
     7
  6
CONTINUOUS
370
    -3
390
F
347
21
  0
LAYER
  5
87
102
{ACAD_XDICTIONARY
360
47F
102
}
330
2
100
AcDbSymbolTableRecord
100
AcDbLayerTableRecord
  2
_F-5_固定文字
 70
     0
 62
     7
  6
CONTINUOUS
370
    -3
390
F
347
21
  0
LAYER
  5
88
102
{ACAD_XDICTIONARY
360
481
102
}
330
2
100
AcDbSymbolTableRecord
100
AcDbLayerTableRecord
  2
_F-6_文字
 70
     0
 62
     7
  6
CONTINUOUS
370
    -3
390
F
347
21
  0
LAYER
  5
89
102
{ACAD_XDICTIONARY
360
483
102
}
330
2
100
AcDbSymbolTableRecord
100
AcDbLayerTableRecord
  2
ADD_LINE
 70
     0
 62
     7
  6
CONTINUOUS
370
    -3
390
F
347
21
  0
ENDTAB
  0
TABLE
  2
STYLE
  5
3
330
0
100
AcDbSymbolTable
 70
     3
  0
STYLE
  5
55
330
3
100
AcDbSymbolTableRecord
100
AcDbTextStyleTableRecord
  2
STANDARD
 70
     0
 40
0.0
 41
1.0
 50
0.0
 71
     0
 42
2.0
  3
txt
  4
bigfont.shx
  0
STYLE
  5
59
330
3
100
AcDbSymbolTableRecord
100
AcDbTextStyleTableRecord
  2
Annotative
 70
     0
 40
0.0
 41
1.0
 50
0.0
 71
     0
 42
0.2
  3
txt
  4

1001
AcadAnnotative
1000
AnnotativeData
1002
{
1070
     1
1070
     1
1002
}
  0
STYLE
  5
82
330
3
100
AcDbSymbolTableRecord
100
AcDbTextStyleTableRecord
  2
TATEGAKI
 70
     4
 40
0.0
 41
1.0
 50
0.0
 71
     0
 42
1.0
  3
txt
  4
bigfont.shx
  0
ENDTAB
  0
TABLE
  2
VIEW
  5
6
330
0
100
AcDbSymbolTable
 70
     0
  0
ENDTAB
  0
TABLE
  2
UCS
  5
7
330
0
100
AcDbSymbolTable
 70
     0
  0
ENDTAB
  0
TABLE
  2
APPID
  5
9
330
0
100
AcDbSymbolTable
 70
     4
  0
APPID
  5
56
330
9
100
AcDbSymbolTableRecord
100
AcDbRegAppTableRecord
  2
ACAD
 70
     0
  0
APPID
  5
5D
330
9
100
AcDbSymbolTableRecord
100
AcDbRegAppTableRecord
  2
AcadAnnotative
 70
     0
  0
APPID
  5
472
330
9
100
AcDbSymbolTableRecord
100
AcDbRegAppTableRecord
  2
ACAD_EXEMPT_FROM_CAD_STANDARDS
 70
     0
  0
APPID
  5
48D
330
9
100
AcDbSymbolTableRecord
100
AcDbRegAppTableRecord
  2
ACAD_NAV_VCDISPLAY
 70
     0
  0
ENDTAB
  0
TABLE
  2
DIMSTYLE
  5
A
330
0
100
AcDbSymbolTable
 70
     2
100
AcDbDimStyleTable
 71
     0
  0
DIMSTYLE
105
57
330
A
100
AcDbSymbolTableRecord
100
AcDbDimStyleTableRecord
  2
Standard
 70
     0
340
55
  0
DIMSTYLE
105
58
330
A
100
AcDbSymbolTableRecord
100
AcDbDimStyleTableRecord
  2
Annotative
 70
     0
340
55
1001
AcadAnnotative
1000
AnnotativeData
1002
{
1070
     1
1070
     1
1002
}
  0
ENDTAB
  0
TABLE
  2
BLOCK_RECORD
  5
1
330
0
100
AcDbSymbolTable
 70
     0
  0
BLOCK_RECORD
  5
6B
330
1
100
AcDbSymbolTableRecord
100
AcDbBlockTableRecord
  2
*Model_Space
340
6E
 70
     0
280
     1
281
     0
  0
BLOCK_RECORD
  5
67
330
1
100
AcDbSymbolTableRecord
100
AcDbBlockTableRecord
  2
*Paper_Space
340
6A
 70
     0
280
     1
281
     0
  0
ENDTAB
  0
ENDSEC
  0
SECTION
  2
BLOCKS
  0
BLOCK
  5
6C
330
6B
100
AcDbEntity
  8
0
100
AcDbBlockBegin
  2
*Model_Space
 70
     0
 10
0.0
 20
0.0
 30
0.0
  3
*Model_Space
  1

  0
ENDBLK
  5
6D
330
6B
100
AcDbEntity
  8
0
100
AcDbBlockEnd
  0
BLOCK
  5
68
330
67
100
AcDbEntity
 67
     1
  8
0
100
AcDbBlockBegin
  2
*Paper_Space
 70
     0
 10
0.0
 20
0.0
 30
0.0
  3
*Paper_Space
  1

  0
ENDBLK
  5
69
330
67
100
AcDbEntity
 67
     1
  8
0
100
AcDbBlockEnd
  0
ENDSEC
  0
SECTION
  2
ENTITIES
  0
LINE
  5
8D
330
6B
100
AcDbEntity
  8
_F-3_太線２
  6
Continuous
 62
     3
100
AcDbLine
 10
10.96666666666666
 20
10.04999999999998
 30
0.0
 11
285.9666666666667
 21
10.04999999999998
 31
0.0
  0
LINE
  5
8E
330
6B
100
AcDbEntity
  8
_F-3_太線２
  6
Continuous
 62
     3
100
AcDbLine
 10
285.9666666666667
 20
200.05
 30
0.0
 11
285.9666666666667
 21
10.04999999999998
 31
0.0
  0
LINE
  5
8F
330
6B
100
AcDbEntity
  8
_F-3_太線２
  6
Continuous
 62
     3
100
AcDbLine
 10
10.96666666666666
 20
200.05
 30
0.0
 11
285.9666666666667
 21
200.05
 31
0.0
  0
LINE
  5
90
330
6B
100
AcDbEntity
  8
_F-3_太線２
  6
Continuous
 62
     3
100
AcDbLine
 10
10.96666666666666
 20
200.05
 30
0.0
 11
10.96666666666666
 21
10.04999999999998
 31
0.0
  0
LINE
  5
91
330
6B
100
AcDbEntity
  8
_F-3_太線２
  6
Continuous
 62
     7
100
AcDbLine
 10
15.96666666666666
 20
26.04999999999999
 30
0.0
 11
15.96666666666666
 21
10.04999999999998
 31
0.0
  0
LINE
  5
92
330
6B
100
AcDbEntity
  8
_F-3_太線２
  6
Continuous
 62
     4
100
AcDbLine
 10
20.96666666666667
 20
26.04999999999999
 30
0.0
 11
20.96666666666667
 21
10.04999999999998
 31
0.0
  0
LINE
  5
93
330
6B
100
AcDbEntity
  8
_F-3_太線２
  6
Continuous
 62
     4
100
AcDbLine
 10
35.96666666666667
 20
26.04999999999999
 30
0.0
 11
35.96666666666667
 21
10.04999999999998
 31
0.0
  0
LINE
  5
94
330
6B
100
AcDbEntity
  8
_F-3_太線２
  6
Continuous
 62
     3
100
AcDbLine
 10
10.96666666666666
 20
26.04999999999999
 30
0.0
 11
285.9666666666667
 21
26.04999999999999
 31
0.0
  0
LINE
  5
95
330
6B
100
AcDbEntity
  8
_F-3_太線２
  6
Continuous
 62
     7
100
AcDbLine
 10
222.9666666666667
 20
10.04999999999998
 30
0.0
 11
222.9666666666667
 21
26.04999999999999
 31
0.0
  0
LINE
  5
96
330
6B
100
AcDbEntity
  8
_F-3_太線２
  6
Continuous
 62
     3
100
AcDbLine
 10
154.9666666666666
 20
26.04999999999999
 30
0.0
 11
154.9666666666666
 21
10.04999999999998
 31
0.0
  0
LINE
  5
97
330
6B
100
AcDbEntity
  8
_F-3_太線２
  6
Continuous
 62
     7
100
AcDbLine
 10
154.9666666666666
 20
18.04999999999998
 30
0.0
 11
285.9666666666667
 21
18.04999999999998
 31
0.0
  0
LINE
  5
98
330
6B
100
AcDbEntity
  8
_F-3_太線２
  6
Continuous
 62
     3
100
AcDbLine
 10
89.96666666666667
 20
26.04999999999999
 30
0.0
 11
89.96666666666667
 21
10.04999999999998
 31
0.0
  0
LINE
  5
99
330
6B
100
AcDbEntity
  8
_F-3_太線２
  6
Continuous
 62
     4
100
AcDbLine
 10
15.96666666666666
 20
22.04999999999999
 30
0.0
 11
89.96666666666667
 21
22.04999999999999
 31
0.0
  0
LINE
  5
9A
330
6B
100
AcDbEntity
  8
_F-3_太線２
  6
Continuous
 62
     4
100
AcDbLine
 10
15.96666666666666
 20
18.04999999999998
 30
0.0
 11
89.96666666666667
 21
18.04999999999998
 31
0.0
  0
LINE
  5
9B
330
6B
100
AcDbEntity
  8
_F-3_太線２
  6
Continuous
 62
     4
100
AcDbLine
 10
15.96666666666666
 20
14.04999999999998
 30
0.0
 11
89.96666666666667
 21
14.04999999999998
 31
0.0
  0
LINE
  5
9C
330
6B
100
AcDbEntity
  8
_F-3_太線２
  6
Continuous
 62
     7
100
AcDbLine
 10
170.9666666666666
 20
18.04999999999998
 30
0.0
 11
170.9666666666666
 21
10.04999999999998
 31
0.0
  0
LINE
  5
9D
330
6B
100
AcDbEntity
  8
_F-3_太線２
  6
Continuous
 62
     7
100
AcDbLine
 10
186.9666666666667
 20
18.04999999999998
 30
0.0
 11
186.9666666666667
 21
10.04999999999998
 31
0.0
  0
LINE
  5
9E
330
6B
100
AcDbEntity
  8
_F-3_太線２
  6
Continuous
 62
     7
100
AcDbLine
 10
202.9666666666666
 20
18.04999999999998
 30
0.0
 11
202.9666666666666
 21
10.04999999999998
 31
0.0
  0
LINE
  5
9F
330
6B
100
AcDbEntity
  8
_F-3_太線２
  6
Continuous
 62
     7
100
AcDbLine
 10
255.9666666666667
 20
26.04999999999999
 30
0.0
 11
255.9666666666667
 21
18.04999999999998
 31
0.0
  0
LINE
  5
A0
330
6B
100
AcDbEntity
  8
_F-3_太線２
  6
Continuous
 62
     7
100
AcDbLine
 10
242.9666666666667
 20
10.04999999999998
 30
0.0
 11
242.9666666666667
 21
18.04999999999998
 31
0.0
  0
TEXT
  5
A1
330
6B
100
AcDbEntity
  8
_F-5_固定文字
 62
     4
100
AcDbText
 10
12.42014151593454
 20
20.00352353143839
 30
0.0
 40
2.0
  1
訂
100
AcDbText
  0
TEXT
  5
A2
330
6B
100
AcDbEntity
  8
_F-5_固定文字
 62
     4
100
AcDbText
 10
12.42014151593454
 20
14.66857521102494
 30
0.0
 40
2.0
  1
正
100
AcDbText
  0
TEXT
  5
A3
330
6B
100
AcDbEntity
  8
_F-5_固定文字
 62
     4
100
AcDbText
 10
155.82953125
 20
14.78253125000003
 30
0.0
 40
2.0
  1
検図
100
AcDbText
  0
TEXT
  5
A4
330
6B
100
AcDbEntity
  8
_F-5_固定文字
 62
     4
100
AcDbText
 10
155.82953125
 20
22.78253125000002
 30
0.0
 40
2.0
  1
製品名
100
AcDbText
  0
TEXT
  5
A5
330
6B
100
AcDbEntity
  8
_F-5_固定文字
 62
     4
100
AcDbText
 10
171.82953125
 20
14.78253125000003
 30
0.0
 40
2.0
  1
設計
100
AcDbText
  0
TEXT
  5
A6
330
6B
100
AcDbEntity
  8
_F-5_固定文字
 62
     4
100
AcDbText
 10
187.82953125
 20
14.78253125000003
 30
0.0
 40
2.0
  1
製図
100
AcDbText
  0
TEXT
  5
A7
330
6B
100
AcDbEntity
  8
_F-5_固定文字
 62
     4
100
AcDbText
 10
203.82953125
 20
14.78253125000003
 30
0.0
 40
2.0
  1
日付
100
AcDbText
  0
TEXT
  5
A8
330
6B
100
AcDbEntity
  8
_F-5_固定文字
 62
     4
100
AcDbText
 10
223.82953125
 20
14.78253125000003
 30
0.0
 40
2.0
  1
縮尺
100
AcDbText
  0
TEXT
  5
A9
330
6B
100
AcDbEntity
  8
_F-5_固定文字
 62
     4
100
AcDbText
 10
243.82953125
 20
14.78253125000003
 30
0.0
 40
2.0
  1
備考
100
AcDbText
  0
LINE
  5
AA
330
6B
100
AcDbEntity
  8
_F-5_固定文字
  6
Continuous
 62
     7
100
AcDbLine
 10
104.1597683410537
 20
22.38568416973989
 30
0.0
 11
105.7805168419653
 21
20.7649356688283
 31
0.0
  0
LINE
  5
AB
330
6B
100
AcDbEntity
  8
_F-5_固定文字
  6
Continuous
 62
     7
100
AcDbLine
 10
102.5949081261967
 20
23.92429008188341
 30
0.0
 11
102.7206180443135
 21
24.05000000000023
 31
0.0
  0
LINE
  5
AC
330
6B
100
AcDbEntity
  8
_F-5_固定文字
  6
Continuous
 62
     7
100
AcDbLine
 10
102.5949081261968
 20
23.78286872564515
 30
0.0
 11
102.8620394005519
 21
24.05000000000025
 31
0.0
  0
LINE
  5
AD
330
6B
100
AcDbEntity
  8
_F-5_固定文字
  6
Continuous
 62
     7
100
AcDbLine
 10
102.5949081261969
 20
23.6414473694086
 30
0.0
 11
103.0034607567883
 21
24.04999999999999
 31
0.0
  0
LINE
  5
AE
330
6B
100
AcDbEntity
  8
_F-5_固定文字
  6
Continuous
 62
     7
100
AcDbLine
 10
102.5949081261972
 20
23.50002601317045
 30
0.0
 11
103.1448821130268
 21
24.05000000000006
 31
0.0
  0
LINE
  5
AF
330
6B
100
AcDbEntity
  8
_F-5_固定文字
  6
Continuous
 62
     7
100
AcDbLine
 10
102.5949081261969
 20
23.35860465693357
 30
0.0
 11
103.2863034692637
 21
24.05000000000041
 31
0.0
  0
LINE
  5
B0
330
6B
100
AcDbEntity
  8
_F-5_固定文字
  6
Continuous
 62
     7
100
AcDbLine
 10
102.5949081261968
 20
23.21718330069682
 30
0.0
 11
103.4277248255
 21
24.05000000000006
 31
0.0
  0
LINE
  5
B1
330
6B
100
AcDbEntity
  8
_F-5_固定文字
  6
Continuous
 62
     7
100
AcDbLine
 10
102.5949081261972
 20
23.07576194445888
 30
0.0
 11
103.5691461817386
 21
24.05000000000023
 31
0.0
  0
LINE
  5
B2
330
6B
100
AcDbEntity
  8
_F-5_固定文字
  6
Continuous
 62
     7
100
AcDbLine
 10
102.601023651135
 20
22.94045611316001
 30
0.0
 11
103.7105675379753
 21
24.05000000000033
 31
0.0
  0
LINE
  5
B3
330
6B
100
AcDbEntity
  8
_F-5_固定文字
  6
Continuous
 62
     7
100
AcDbLine
 10
102.7424450073729
 20
22.94045611315947
 30
0.0
 11
103.8519888942134
 21
24.05000000000003
 31
0.0
  0
LINE
  5
B4
330
6B
100
AcDbEntity
  8
_F-5_固定文字
  6
Continuous
 62
     7
100
AcDbLine
 10
102.8838663636098
 20
22.94045611315985
 30
0.0
 11
103.9934102504504
 21
24.05000000000041
 31
0.0
  0
LINE
  5
B5
330
6B
100
AcDbEntity
  8
_F-5_固定文字
  6
Continuous
 62
     7
100
AcDbLine
 10
103.0252877198467
 20
22.94045611316011
 30
0.0
 11
104.1348316066865
 21
24.04999999999987
 31
0.0
  0
LINE
  5
B6
330
6B
100
AcDbEntity
  8
_F-5_固定文字
  6
Continuous
 62
     7
100
AcDbLine
 10
103.1667090760847
 20
22.94045611315967
 30
0.0
 11
104.2762529629252
 21
24.0500000000002
 31
0.0
  0
LINE
  5
B7
330
6B
100
AcDbEntity
  8
_F-5_固定文字
  6
Continuous
 62
     7
100
AcDbLine
 10
102.5949081261974
 20
22.36865516327238
 30
0.0
 11
102.6119371326647
 21
22.38568416973967
 31
0.0
  0
LINE
  5
B8
330
6B
100
AcDbEntity
  8
_F-5_固定文字
  6
Continuous
 62
     7
100
AcDbLine
 10
103.3081304323216
 20
22.94045611316005
 30
0.0
 11
104.4176743191618
 21
24.05000000000016
 31
0.0
  0
LINE
  5
B9
330
6B
100
AcDbEntity
  8
_F-5_固定文字
  6
Continuous
 62
     7
100
AcDbLine
 10
102.594908126197
 20
22.22723380703543
 30
0.0
 11
102.7533584889017
 21
22.38568416974001
 31
0.0
  0
LINE
  5
BA
330
6B
100
AcDbEntity
  8
_F-5_固定文字
  6
Continuous
 62
     7
100
AcDbLine
 10
103.4495517885585
 20
22.94045611316021
 30
0.0
 11
104.5590956753982
 21
24.04999999999994
 31
0.0
  0
LINE
  5
BB
330
6B
100
AcDbEntity
  8
_F-5_固定文字
  6
Continuous
 62
     7
100
AcDbLine
 10
102.5949081261967
 20
22.08581245079848
 30
0.0
 11
102.8947798451385
 21
22.38568416974032
 31
0.0
  0
LINE
  5
BC
330
6B
100
AcDbEntity
  8
_F-5_固定文字
  6
Continuous
 62
     7
100
AcDbLine
 10
103.5909731447965
 20
22.94045611315989
 30
0.0
 11
104.700517031637
 21
24.05000000000037
 31
0.0
  0
LINE
  5
BD
330
6B
100
AcDbEntity
  8
_F-5_固定文字
  6
Continuous
 62
     7
100
AcDbLine
 10
102.594908126197
 20
21.94439109456038
 30
0.0
 11
103.0362012013765
 21
22.38568416973985
 31
0.0
  0
LINE
  5
BE
330
6B
100
AcDbEntity
  8
_F-5_固定文字
  6
Continuous
 62
     7
100
AcDbLine
 10
103.7323945010332
 20
22.94045611315997
 30
0.0
 11
104.8419383878729
 21
24.04999999999969
 31
0.0
  0
LINE
  5
BF
330
6B
100
AcDbEntity
  8
_F-5_固定文字
  6
Continuous
 62
     7
100
AcDbLine
 10
102.5949081261969
 20
21.80296973832365
 30
0.0
 11
103.1776225576133
 21
22.38568416974008
 31
0.0
  0
LINE
  5
C0
330
6B
100
AcDbEntity
  8
_F-5_固定文字
  6
Continuous
 62
     7
100
AcDbLine
 10
103.8738158572714
 20
22.94045611315973
 30
0.0
 11
104.9829579347798
 21
24.04959819066808
 31
0.0
  0
LINE
  5
C1
330
6B
100
AcDbEntity
  8
_F-5_固定文字
  6
Continuous
 62
     7
100
AcDbLine
 10
102.5949081261969
 20
21.66154838208525
 30
0.0
 11
103.3190439138519
 21
22.38568416974022
 31
0.0
  0
LINE
  5
C2
330
6B
100
AcDbEntity
  8
_F-5_固定文字
  6
Continuous
 62
     7
100
AcDbLine
 10
104.0152372135084
 20
22.94045611316009
 30
0.0
 11
105.1131313947899
 21
24.03835029444163
 31
0.0
  0
LINE
  5
C3
330
6B
100
AcDbEntity
  8
_F-5_固定文字
  6
Continuous
 62
     7
100
AcDbLine
 10
102.5949081261971
 20
21.52012702584882
 30
0.0
 11
103.4604652700883
 21
22.38568416974006
 31
0.0
  0
LINE
  5
C4
330
6B
100
AcDbEntity
  8
_F-5_固定文字
  6
Continuous
 62
     7
100
AcDbLine
 10
104.156658569745
 20
22.94045611316007
 30
0.0
 11
105.230795856467
 21
24.01459339988214
 31
0.0
  0
LINE
  5
C5
330
6B
100
AcDbEntity
  8
_F-5_固定文字
  6
Continuous
 62
     7
100
AcDbLine
 10
102.5949081261968
 20
21.37870566961188
 30
0.0
 11
103.6018866263251
 21
22.38568416974017
 31
0.0
  0
LINE
  5
C6
330
6B
100
AcDbEntity
  8
_F-5_固定文字
  6
Continuous
 62
     7
100
AcDbLine
 10
104.2980799259832
 20
22.94045611315991
 30
0.0
 11
105.3384267735801
 21
23.98080296075677
 31
0.0
  0
LINE
  5
C7
330
6B
100
AcDbEntity
  8
_F-5_固定文字
  6
Continuous
 62
     7
100
AcDbLine
 10
102.6337312602382
 20
21.27610744741489
 30
0.0
 11
103.7433079825632
 21
22.38568416973989
 31
0.0
  0
LINE
  5
C8
330
6B
100
AcDbEntity
  8
_F-5_固定文字
  6
Continuous
 62
     7
100
AcDbLine
 10
104.4395012822197
 20
22.94045611315981
 30
0.0
 11
105.4375245602942
 21
23.93847939123425
 31
0.0
  0
LINE
  5
C9
330
6B
100
AcDbEntity
  8
_F-5_固定文字
  6
Continuous
 62
     7
100
AcDbLine
 10
102.7751526164746
 20
21.2761074474147
 30
0.0
 11
103.8847293387998
 21
22.38568416973993
 31
0.0
  0
LINE
  5
CA
330
6B
100
AcDbEntity
  8
_F-5_固定文字
  6
Continuous
 62
     7
100
AcDbLine
 10
104.5809226384581
 20
22.94045611315975
 30
0.0
 11
105.5290431840522
 21
23.88857665875385
 31
0.0
  0
LINE
  5
CB
330
6B
100
AcDbEntity
  8
_F-5_固定文字
  6
Continuous
 62
     7
100
AcDbLine
 10
102.9165739727131
 20
21.27610744741478
 30
0.0
 11
104.0261506950386
 21
22.38568416974025
 31
0.0
  0
LINE
  5
CC
330
6B
100
AcDbEntity
  8
_F-5_固定文字
  6
Continuous
 62
     7
100
AcDbLine
 10
104.7188917161357
 20
22.9370038346007
 30
0.0
 11
105.6135925176105
 21
23.83170463607549
 31
0.0
  0
LINE
  5
CD
330
6B
100
AcDbEntity
  8
_F-5_固定文字
  6
Continuous
 62
     7
100
AcDbLine
 10
103.05799532895
 20
21.276107447415
 30
0.0
 11
104.1675720512751
 21
22.38568416974008
 31
0.0
  0
LINE
  5
CE
330
6B
100
AcDbEntity
  8
_F-5_固定文字
  6
Continuous
 62
     7
100
AcDbLine
 10
104.8218722175898
 20
22.89856297981821
 30
0.0
 11
105.6915420239038
 21
23.76823278613229
 31
0.0
  0
LINE
  5
CF
330
6B
100
AcDbEntity
  8
_F-5_固定文字
  6
Continuous
 62
     7
100
AcDbLine
 10
103.1994166851864
 20
21.27610744741482
 30
0.0
 11
104.3089934075116
 21
22.38568416974004
 31
0.0
  0
LINE
  5
D0
330
6B
100
AcDbEntity
  8
_F-5_固定文字
  6
Continuous
 62
     7
100
AcDbLine
 10
104.8959250806065
 20
22.83119448659652
 30
0.0
 11
105.7630745054112
 21
23.69834391140121
 31
0.0
  0
LINE
  5
D1
330
6B
100
AcDbEntity
  8
_F-5_固定文字
  6
Continuous
 62
     7
100
AcDbLine
 10
103.3408380414247
 20
21.27610744741476
 30
0.0
 11
104.4504147637499
 21
22.38568416973993
 31
0.0
  0
LINE
  5
D2
330
6B
100
AcDbEntity
  8
_F-5_固定文字
  6
Continuous
 62
     7
100
AcDbLine
 10
104.9427599816072
 20
22.73660803136061
 30
0.0
 11
105.8282102827325
 21
23.62205833248591
 31
0.0
  0
LINE
  5
D3
330
6B
100
AcDbEntity
  8
_F-5_固定文字
  6
Continuous
 62
     7
100
AcDbLine
 10
103.4822593976612
 20
21.27610744741458
 30
0.0
 11
104.5918361199869
 21
22.3856841697403
 31
0.0
  0
LINE
  5
D4
330
6B
100
AcDbEntity
  8
_F-5_固定文字
  6
Continuous
 62
     7
100
AcDbLine
 10
104.9447492593118
 20
22.59717595282671
 30
0.0
 11
105.8868097858631
 21
23.53923647937809
 31
0.0
  0
LINE
  5
D5
330
6B
100
AcDbEntity
  8
_F-5_固定文字
  6
Continuous
 62
     7
100
AcDbLine
 10
103.6236807538999
 20
21.27610744741488
 30
0.0
 11
104.7411847893363
 21
22.39361148285132
 31
0.0
  0
LINE
  5
D6
330
6B
100
AcDbEntity
  8
_F-5_固定文字
  6
Continuous
 62
     7
100
AcDbLine
 10
103.7651021101365
 20
21.27610744741485
 30
0.0
 11
105.9385553684106
 21
23.44956070568897
 31
0.0
  0
LINE
  5
D7
330
6B
100
AcDbEntity
  8
_F-5_固定文字
  6
Continuous
 62
     7
100
AcDbLine
 10
103.9065234663729
 20
21.27610744741467
 30
0.0
 11
105.9829064718552
 21
23.35249045289693
 31
0.0
  0
LINE
  5
D8
330
6B
100
AcDbEntity
  8
_F-5_固定文字
  6
Continuous
 62
     7
100
AcDbLine
 10
104.0479448226118
 20
21.27610744741513
 30
0.0
 11
106.0190118684869
 21
23.24717449329019
 31
0.0
  0
LINE
  5
D9
330
6B
100
AcDbEntity
  8
_F-5_固定文字
  6
Continuous
 62
     7
100
AcDbLine
 10
104.7608675865149
 20
21.84760885508168
 30
0.0
 11
106.0455402482439
 21
23.13228151681071
 31
0.0
  0
LINE
  5
DA
330
6B
100
AcDbEntity
  8
_F-5_固定文字
  6
Continuous
 62
     7
100
AcDbLine
 10
104.1851856448074
 20
21.27192691337412
 30
0.0
 11
104.7419471223493
 21
21.82868839091606
 31
0.0
  0
LINE
  5
DB
330
6B
100
AcDbEntity
  8
_F-5_固定文字
  6
Continuous
 62
     7
100
AcDbLine
 10
104.8874982795406
 20
21.83281819187069
 30
0.0
 11
106.0603309114559
 21
23.00565082378598
 31
0.0
  0
LINE
  5
DC
330
6B
100
AcDbEntity
  8
_F-5_固定文字
  6
Continuous
 62
     7
100
AcDbLine
 10
104.2998284520663
 20
21.24514836439637
 30
0.0
 11
104.8680895574016
 21
21.81340946973177
 31
0.0
  0
LINE
  5
DD
330
6B
100
AcDbEntity
  8
_F-5_固定文字
  6
Continuous
 62
     7
100
AcDbLine
 10
105.0296765098601
 20
21.83357506595185
 30
0.0
 11
106.0595740373747
 21
22.86347259346641
 31
0.0
  0
LINE
  5
DE
330
6B
100
AcDbEntity
  8
_F-5_固定文字
  6
Continuous
 62
     7
100
AcDbLine
 10
104.3966244374714
 20
21.20052299356309
 30
0.0
 11
104.9825961716652
 21
21.78649472775686
 31
0.0
  0
LINE
  5
DF
330
6B
100
AcDbEntity
  8
_F-5_固定文字
  6
Continuous
 62
     7
100
AcDbLine
 10
105.1952640972031
 20
21.85774129705824
 30
0.0
 11
106.0354078062683
 21
22.6978850061234
 31
0.0
  0
LINE
  5
E0
330
6B
100
AcDbEntity
  8
_F-5_固定文字
  6
Continuous
 62
     7
100
AcDbLine
 10
104.479160060694
 20
21.14163726054911
 30
0.0
 11
105.08758682997
 21
21.75006402982507
 31
0.0
  0
LINE
  5
E1
330
6B
100
AcDbEntity
  8
_F-5_固定文字
  6
Continuous
 62
     7
100
AcDbLine
 10
105.4072124557615
 20
21.92826829937821
 30
0.0
 11
105.9648808039483
 21
22.485936647565
 31
0.0
  0
LINE
  5
E2
330
6B
100
AcDbEntity
  8
_F-5_固定文字
  6
Continuous
 62
     7
100
AcDbLine
 10
104.548734385913
 20
21.06979022952971
 30
0.0
 11
105.1843704453031
 21
21.7054262889198
 31
0.0
  0
LINE
  5
E3
330
6B
100
AcDbEntity
  8
_F-5_固定文字
  6
Continuous
 62
     7
100
AcDbLine
 10
104.6052298710473
 20
20.9848643584274
 30
0.0
 11
105.2737844125604
 21
21.65341889994051
 31
0.0
  0
LINE
  5
E4
330
6B
100
AcDbEntity
  8
_F-5_固定文字
  6
Continuous
 62
     7
100
AcDbLine
 10
104.647042667756
 20
20.88525579889945
 30
0.0
 11
105.3563598152378
 21
21.59457294638122
 31
0.0
  0
LINE
  5
E5
330
6B
100
AcDbEntity
  8
_F-5_固定文字
  6
Continuous
 62
     7
100
AcDbLine
 10
104.6699476087396
 20
20.76673938364464
 30
0.0
 11
105.4324071043502
 21
21.52919887925525
 31
0.0
  0
LINE
  5
E6
330
6B
100
AcDbEntity
  8
_F-5_固定文字
  6
Continuous
 62
     7
100
AcDbLine
 10
104.6721177215487
 20
20.62748814021708
 30
0.0
 11
105.5020597429584
 21
21.45743016162686
 31
0.0
  0
LINE
  5
E7
330
6B
100
AcDbEntity
  8
_F-5_固定文字
  6
Continuous
 62
     7
100
AcDbLine
 10
104.672559331299
 20
20.486508393729
 30
0.0
 11
105.5652915643359
 21
21.3792406267659
 31
0.0
  0
LINE
  5
E8
330
6B
100
AcDbEntity
  8
_F-5_固定文字
  6
Continuous
 62
     7
100
AcDbLine
 10
104.6730009410484
 20
20.34552864724183
 30
0.0
 11
105.6219134341491
 21
21.29444114034249
 31
0.0
  0
LINE
  5
E9
330
6B
100
AcDbEntity
  8
_F-5_固定文字
  6
Continuous
 62
     7
100
AcDbLine
 10
104.6734425507981
 20
20.20454890075489
 30
0.0
 11
105.671548172445
 21
21.2026545224018
 31
0.0
  0
LINE
  5
EA
330
6B
100
AcDbEntity
  8
_F-5_固定文字
  6
Continuous
 62
     7
100
AcDbLine
 10
104.6738841605482
 20
20.06356915426655
 30
0.0
 11
105.7135754247729
 21
21.10326041849129
 31
0.0
  0
LINE
  5
EB
330
6B
100
AcDbEntity
  8
_F-5_固定文字
  6
Continuous
 62
     7
100
AcDbLine
 10
104.6743257702976
 20
19.92258940777938
 30
0.0
 11
105.7470254563914
 21
20.99528909387317
 31
0.0
  0
LINE
  5
EC
330
6B
100
AcDbEntity
  8
_F-5_固定文字
  6
Continuous
 62
     7
100
AcDbLine
 10
104.6747673800475
 20
19.78160966129085
 30
0.0
 11
105.7703714794871
 21
20.8772137607304
 31
0.0
  0
LINE
  5
ED
330
6B
100
AcDbEntity
  8
_F-5_固定文字
  6
Continuous
 62
     7
100
AcDbLine
 10
104.6752089897974
 20
19.64062991480411
 30
0.0
 11
105.7810879373046
 21
20.74650886231136
 31
0.0
  0
LINE
  5
EE
330
6B
100
AcDbEntity
  8
_F-5_固定文字
  6
Continuous
 62
     7
100
AcDbLine
 10
104.7879395600203
 20
19.61193912879037
 30
0.0
 11
105.7817743002137
 21
20.60577386898386
 31
0.0
  0
LINE
  5
EF
330
6B
100
AcDbEntity
  8
_F-5_固定文字
  6
Continuous
 62
     7
100
AcDbLine
 10
104.9293399953207
 20
19.6119182078524
 30
0.0
 11
105.7822234483358
 21
20.46480166086746
 31
0.0
  0
LINE
  5
F0
330
6B
100
AcDbEntity
  8
_F-5_固定文字
  6
Continuous
 62
     7
100
AcDbLine
 10
105.0707404306198
 20
19.61189728691488
 30
0.0
 11
105.7826725964585
 21
20.32382945275356
 31
0.0
  0
LINE
  5
F1
330
6B
100
AcDbEntity
  8
_F-5_固定文字
  6
Continuous
 62
     7
100
AcDbLine
 10
105.2121408659186
 20
19.61187636597709
 30
0.0
 11
105.7831217445804
 21
20.18285724463887
 31
0.0
  0
LINE
  5
F2
330
6B
100
AcDbEntity
  8
_F-5_固定文字
  6
Continuous
 62
     7
100
AcDbLine
 10
105.3535413012189
 20
19.61185544503893
 30
0.0
 11
105.783570892703
 21
20.04188503652303
 31
0.0
  0
LINE
  5
F3
330
6B
100
AcDbEntity
  8
_F-5_固定文字
  6
Continuous
 62
     7
100
AcDbLine
 10
105.4949417365178
 20
19.61183452410125
 30
0.0
 11
105.7840200408251
 21
19.90091282840853
 31
0.0
  0
LINE
  5
F4
330
6B
100
AcDbEntity
  8
_F-5_固定文字
  6
Continuous
 62
     7
100
AcDbLine
 10
105.6363421718179
 20
19.61181360316296
 30
0.0
 11
105.7844691889477
 21
19.7599406202928
 31
0.0
  0
LINE
  5
F5
330
6B
100
AcDbEntity
  8
_F-5_固定文字
  6
Continuous
 62
     7
100
AcDbLine
 10
105.777742607117
 20
19.61179268222544
 30
0.0
 11
105.7849183370698
 21
19.61896841217823
 31
0.0
  0
LINE
  5
F6
330
6B
100
AcDbEntity
  8
_F-5_固定文字
  6
Continuous
 62
     7
100
AcDbLine
 10
105.4334136333125
 20
23.94046600222595
 30
0.0
 11
105.9527028792297
 21
23.42117675630873
 31
0.0
  0
LINE
  5
F7
330
6B
100
AcDbEntity
  8
_F-5_固定文字
  6
Continuous
 62
     7
100
AcDbLine
 10
105.2135459266481
 20
24.01891235265379
 30
0.0
 11
106.0311492296575
 21
23.20130904964429
 31
0.0
  0
LINE
  5
F8
330
6B
100
AcDbEntity
  8
_F-5_固定文字
  6
Continuous
 62
     7
100
AcDbLine
 10
105.0448605683885
 20
24.04617635467679
 30
0.0
 11
106.0584132316806
 21
23.03262369138467
 31
0.0
  0
LINE
  5
F9
330
6B
100
AcDbEntity
  8
_F-5_固定文字
  6
Continuous
 62
     7
100
AcDbLine
 10
104.8996155668264
 20
24.05000000000045
 30
0.0
 11
106.0610345827933
 21
22.88858098403347
 31
0.0
  0
LINE
  5
FA
330
6B
100
AcDbEntity
  8
_F-5_固定文字
  6
Continuous
 62
     7
100
AcDbLine
 10
104.75819421059
 20
24.05000000000024
 30
0.0
 11
106.0475766427087
 21
22.76061756788152
 31
0.0
  0
LINE
  5
FB
330
6B
100
AcDbEntity
  8
_F-5_固定文字
  6
Continuous
 62
     7
100
AcDbLine
 10
104.6167728543535
 20
24.05000000000011
 30
0.0
 11
106.0220974458077
 21
22.64467540854588
 31
0.0
  0
LINE
  5
FC
330
6B
100
AcDbEntity
  8
_F-5_固定文字
  6
Continuous
 62
     7
100
AcDbLine
 10
104.4753514981147
 20
24.05000000000051
 30
0.0
 11
105.9868722407634
 21
22.53847925735176
 31
0.0
  0
LINE
  5
FD
330
6B
100
AcDbEntity
  8
_F-5_固定文字
  6
Continuous
 62
     7
100
AcDbLine
 10
104.3339301418787
 20
24.04999999999991
 30
0.0
 11
105.9432945872811
 21
22.44063555459746
 31
0.0
  0
LINE
  5
FE
330
6B
100
AcDbEntity
  8
_F-5_固定文字
  6
Continuous
 62
     7
100
AcDbLine
 10
104.1925087856397
 20
24.05000000000042
 30
0.0
 11
105.8922538747399
 21
22.35025491090022
 31
0.0
  0
LINE
  5
FF
330
6B
100
AcDbEntity
  8
_F-5_固定文字
  6
Continuous
 62
     7
100
AcDbLine
 10
104.051087429403
 20
24.05000000000058
 30
0.0
 11
105.8343166205766
 21
22.26677080882695
 31
0.0
  0
LINE
  5
100
330
6B
100
AcDbEntity
  8
_F-5_固定文字
  6
Continuous
 62
     7
100
AcDbLine
 10
103.9096660731668
 20
24.05000000000008
 30
0.0
 11
105.7698200422999
 21
22.18984603086705
 31
0.0
  0
LINE
  5
101
330
6B
100
AcDbEntity
  8
_F-5_固定文字
  6
Continuous
 62
     7
100
AcDbLine
 10
103.7682447169282
 20
24.05000000000033
 30
0.0
 11
105.6989201897738
 21
22.11932452715467
 31
0.0
  0
LINE
  5
102
330
6B
100
AcDbEntity
  8
_F-5_固定文字
  6
Continuous
 62
     7
100
AcDbLine
 10
104.9436916918387
 20
22.73313166885321
 30
0.0
 11
105.6216123865349
 21
22.05521097415697
 31
0.0
  0
LINE
  5
103
330
6B
100
AcDbEntity
  8
_F-5_固定文字
  6
Continuous
 62
     7
100
AcDbLine
 10
103.626823360692
 20
24.0499999999999
 30
0.0
 11
104.7453685458579
 21
22.93145481483401
 31
0.0
  0
LINE
  5
104
330
6B
100
AcDbEntity
  8
_F-5_固定文字
  6
Continuous
 62
     7
100
AcDbLine
 10
104.9434246848452
 20
22.59197731960825
 30
0.0
 11
105.5377306337339
 21
21.99767137071962
 31
0.0
  0
LINE
  5
105
330
6B
100
AcDbEntity
  8
_F-5_固定文字
  6
Continuous
 62
     7
100
AcDbLine
 10
103.4854020044531
 20
24.05000000000041
 30
0.0
 11
104.5949458912938
 21
22.94045611315967
 31
0.0
  0
LINE
  5
106
330
6B
100
AcDbEntity
  8
_F-5_固定文字
  6
Continuous
 62
     7
100
AcDbLine
 10
104.8972707056011
 20
22.49670994261573
 30
0.0
 11
105.4469257904081
 21
21.94705485780873
 31
0.0
  0
LINE
  5
107
330
6B
100
AcDbEntity
  8
_F-5_固定文字
  6
Continuous
 62
     7
100
AcDbLine
 10
103.3439806482165
 20
24.05000000000041
 30
0.0
 11
104.4535245350569
 21
22.94045611315999
 31
0.0
  0
LINE
  5
108
330
6B
100
AcDbEntity
  8
_F-5_固定文字
  6
Continuous
 62
     7
100
AcDbLine
 10
104.8237923931322
 20
22.4287668988481
 30
0.0
 11
105.3486153915198
 21
21.90394390046043
 31
0.0
  0
LINE
  5
109
330
6B
100
AcDbEntity
  8
_F-5_固定文字
  6
Continuous
 62
     7
100
AcDbLine
 10
103.2025592919802
 20
24.05000000000007
 30
0.0
 11
104.3121031788204
 21
22.94045611315989
 31
0.0
  0
LINE
  5
10A
330
6B
100
AcDbEntity
  8
_F-5_固定文字
  6
Continuous
 62
     7
100
AcDbLine
 10
104.7215770641171
 20
22.38956087162473
 30
0.0
 11
105.2418864146991
 21
21.86925152104271
 31
0.0
  0
LINE
  5
10B
330
6B
100
AcDbEntity
  8
_F-5_固定文字
  6
Continuous
 62
     7
100
AcDbLine
 10
103.0611379357417
 20
24.05000000000014
 30
0.0
 11
104.1706818225821
 21
22.94045611315975
 31
0.0
  0
LINE
  5
10C
330
6B
100
AcDbEntity
  8
_F-5_固定文字
  6
Continuous
 62
     7
100
AcDbLine
 10
104.5840324097655
 20
22.38568416973969
 30
0.0
 11
105.1253064145956
 21
21.84441016490968
 31
0.0
  0
LINE
  5
10D
330
6B
100
AcDbEntity
  8
_F-5_固定文字
  6
Continuous
 62
     7
100
AcDbLine
 10
102.9197165795054
 20
24.04999999999987
 30
0.0
 11
104.0292604663455
 21
22.94045611315973
 31
0.0
  0
LINE
  5
10E
330
6B
100
AcDbEntity
  8
_F-5_固定文字
  6
Continuous
 62
     7
100
AcDbLine
 10
105.0721110508341
 20
21.75618417243454
 30
0.0
 11
105.7066504988281
 21
21.12164472444051
 31
0.0
  0
LINE
  5
10F
330
6B
100
AcDbEntity
  8
_F-5_固定文字
  6
Continuous
 62
     7
100
AcDbLine
 10
104.4426110535286
 20
22.38568416974006
 30
0.0
 11
104.9965278057787
 21
21.83176741748997
 31
0.0
  0
LINE
  5
110
330
6B
100
AcDbEntity
  8
_F-5_固定文字
  6
Continuous
 62
     7
100
AcDbLine
 10
102.7782952232684
 20
24.05000000000023
 30
0.0
 11
103.8878391101085
 21
22.94045611316009
 31
0.0
  0
LINE
  5
111
330
6B
100
AcDbEntity
  8
_F-5_固定文字
  6
Continuous
 62
     7
100
AcDbLine
 10
104.8746670072225
 20
21.81220685980766
 30
0.0
 11
105.7626731862003
 21
20.92420068082989
 31
0.0
  0
LINE
  5
112
330
6B
100
AcDbEntity
  8
_F-5_固定文字
  6
Continuous
 62
     7
100
AcDbLine
 10
104.3011896972902
 20
22.38568416973995
 30
0.0
 11
104.8513332821137
 21
21.83554058491649
 31
0.0
  0
LINE
  5
113
330
6B
100
AcDbEntity
  8
_F-5_固定文字
  6
Continuous
 62
     7
100
AcDbLine
 10
102.63687386703
 20
24.05000000000023
 30
0.0
 11
103.7464177538704
 21
22.94045611315984
 31
0.0
  0
LINE
  5
114
330
6B
100
AcDbEntity
  8
_F-5_固定文字
  6
Continuous
 62
     7
100
AcDbLine
 10
102.594908126197
 20
23.95054438459663
 30
0.0
 11
103.6049963976337
 21
22.94045611315993
 31
0.0
  0
LINE
  5
115
330
6B
100
AcDbEntity
  8
_F-5_固定文字
  6
Continuous
 62
     7
100
AcDbLine
 10
104.0183469848155
 20
22.38568416973972
 30
0.0
 11
105.7817216163204
 21
20.6223095382348
 31
0.0
  0
LINE
  5
116
330
6B
100
AcDbEntity
  8
_F-5_固定文字
  6
Continuous
 62
     7
100
AcDbLine
 10
102.5949081261968
 20
23.80912302835836
 30
0.0
 11
103.4635750413956
 21
22.94045611315963
 31
0.0
  0
LINE
  5
117
330
6B
100
AcDbEntity
  8
_F-5_固定文字
  6
Continuous
 62
     7
100
AcDbLine
 10
103.8769256285789
 20
22.38568416973972
 30
0.0
 11
105.7821736356302
 21
20.48043616268833
 31
0.0
  0
LINE
  5
118
330
6B
100
AcDbEntity
  8
_F-5_固定文字
  6
Continuous
 62
     7
100
AcDbLine
 10
102.5949081261971
 20
23.66770167212145
 30
0.0
 11
103.3221536851588
 21
22.94045611315975
 31
0.0
  0
LINE
  5
119
330
6B
100
AcDbEntity
  8
_F-5_固定文字
  6
Continuous
 62
     7
100
AcDbLine
 10
103.7355042723419
 20
22.38568416974011
 30
0.0
 11
105.7826256549406
 21
20.33856278714139
 31
0.0
  0
LINE
  5
11A
330
6B
100
AcDbEntity
  8
_F-5_固定文字
  6
Continuous
 62
     7
100
AcDbLine
 10
102.5949081261971
 20
23.52628031588485
 30
0.0
 11
103.1807323289218
 21
22.94045611316013
 31
0.0
  0
LINE
  5
11B
330
6B
100
AcDbEntity
  8
_F-5_固定文字
  6
Continuous
 62
     7
100
AcDbLine
 10
103.5940829161037
 20
22.38568416973981
 30
0.0
 11
105.7830776742503
 21
20.19668941159327
 31
0.0
  0
LINE
  5
11C
330
6B
100
AcDbEntity
  8
_F-5_固定文字
  6
Continuous
 62
     7
100
AcDbLine
 10
102.5949081261968
 20
23.38485895964677
 30
0.0
 11
103.0393109726838
 21
22.94045611315969
 31
0.0
  0
LINE
  5
11D
330
6B
100
AcDbEntity
  8
_F-5_固定文字
  6
Continuous
 62
     7
100
AcDbLine
 10
103.452661559867
 20
22.38568416973993
 30
0.0
 11
105.7835296935603
 21
20.0548160360466
 31
0.0
  0
LINE
  5
11E
330
6B
100
AcDbEntity
  8
_F-5_固定文字
  6
Continuous
 62
     7
100
AcDbLine
 10
102.5949081261969
 20
23.24343760341001
 30
0.0
 11
102.897889616447
 21
22.94045611315995
 31
0.0
  0
LINE
  5
11F
330
6B
100
AcDbEntity
  8
_F-5_固定文字
  6
Continuous
 62
     7
100
AcDbLine
 10
103.31124020363
 20
22.3856841697403
 30
0.0
 11
105.7839817128701
 21
19.91294266050017
 31
0.0
  0
LINE
  5
120
330
6B
100
AcDbEntity
  8
_F-5_固定文字
  6
Continuous
 62
     7
100
AcDbLine
 10
102.5949081261968
 20
23.10201624717351
 30
0.0
 11
102.7564682602105
 21
22.9404561131598
 31
0.0
  0
LINE
  5
121
330
6B
100
AcDbEntity
  8
_F-5_固定文字
  6
Continuous
 62
     7
100
AcDbLine
 10
104.6347234779542
 20
20.92077953917765
 30
0.0
 11
105.7844337321801
 21
19.77106928495181
 31
0.0
  0
LINE
  5
122
330
6B
100
AcDbEntity
  8
_F-5_固定文字
  6
Continuous
 62
     7
100
AcDbLine
 10
103.1698188473921
 20
22.38568416973976
 30
0.0
 11
104.3164575044094
 21
21.23904551272251
 31
0.0
  0
LINE
  5
123
330
6B
100
AcDbEntity
  8
_F-5_固定文字
  6
Continuous
 62
     7
100
AcDbLine
 10
102.5949081261967
 20
22.96059489093519
 30
0.0
 11
102.6150469039721
 21
22.94045611315979
 31
0.0
  0
LINE
  5
124
330
6B
100
AcDbEntity
  8
_F-5_固定文字
  6
Continuous
 62
     7
100
AcDbLine
 10
104.6713970440643
 20
20.74268461683101
 30
0.0
 11
105.7848857514904
 21
19.62919590940486
 31
0.0
  0
LINE
  5
125
330
6B
100
AcDbEntity
  8
_F-5_固定文字
  6
Continuous
 62
     7
100
AcDbLine
 10
103.0283974911552
 20
22.38568416974013
 30
0.0
 11
104.1383625820627
 21
21.27571907883255
 31
0.0
  0
LINE
  5
126
330
6B
100
AcDbEntity
  8
_F-5_固定文字
  6
Continuous
 62
     7
100
AcDbLine
 10
104.6722023919518
 20
20.60045791270501
 30
0.0
 11
105.6608503276047
 21
19.61180997705217
 31
0.0
  0
LINE
  5
127
330
6B
100
AcDbEntity
  8
_F-5_固定文字
  6
Continuous
 62
     7
100
AcDbLine
 10
102.8869761349172
 20
22.38568416973967
 30
0.0
 11
103.9965528572419
 21
21.27610744741493
 31
0.0
  0
LINE
  5
128
330
6B
100
AcDbEntity
  8
_F-5_固定文字
  6
Continuous
 62
     7
100
AcDbLine
 10
104.6726467770222
 20
20.4585921713981
 30
0.0
 11
105.5194080442383
 21
19.61183090418196
 31
0.0
  0
LINE
  5
129
330
6B
100
AcDbEntity
  8
_F-5_固定文字
  6
Continuous
 62
     7
100
AcDbLine
 10
102.7455547786803
 20
22.38568416973996
 30
0.0
 11
103.8551315010055
 21
21.27610744741474
 31
0.0
  0
LINE
  5
12A
330
6B
100
AcDbEntity
  8
_F-5_固定文字
  6
Continuous
 62
     7
100
AcDbLine
 10
104.6730911620922
 20
20.31672643009145
 30
0.0
 11
105.3779657608722
 21
19.61185183131148
 31
0.0
  0
LINE
  5
12B
330
6B
100
AcDbEntity
  8
_F-5_固定文字
  6
Continuous
 62
     7
100
AcDbLine
 10
102.6041334224433
 20
22.38568416974033
 30
0.0
 11
103.713710144769
 21
21.2761074474147
 31
0.0
  0
LINE
  5
12C
330
6B
100
AcDbEntity
  8
_F-5_固定文字
  6
Continuous
 62
     7
100
AcDbLine
 10
104.6735355471623
 20
20.17486068878296
 30
0.0
 11
105.2365234775042
 21
19.61187275844102
 31
0.0
  0
LINE
  5
12D
330
6B
100
AcDbEntity
  8
_F-5_固定文字
  6
Continuous
 62
     7
100
AcDbLine
 10
102.5949081261967
 20
22.25348810974856
 30
0.0
 11
103.5722887885302
 21
21.27610744741505
 31
0.0
  0
LINE
  5
12E
330
6B
100
AcDbEntity
  8
_F-5_固定文字
  6
Continuous
 62
     7
100
AcDbLine
 10
104.6739799322324
 20
20.03299494747624
 30
0.0
 11
105.095081194138
 21
19.61189368557062
 31
0.0
  0
LINE
  5
12F
330
6B
100
AcDbEntity
  8
_F-5_固定文字
  6
Continuous
 62
     7
100
AcDbLine
 10
102.594908126197
 20
22.11206675351167
 30
0.0
 11
103.4308674322938
 21
21.27610744741485
 31
0.0
  0
LINE
  5
130
330
6B
100
AcDbEntity
  8
_F-5_固定文字
  6
Continuous
 62
     7
100
AcDbLine
 10
104.6744243173023
 20
19.89112920616794
 30
0.0
 11
104.9536389107702
 21
19.61191461269995
 31
0.0
  0
LINE
  5
131
330
6B
100
AcDbEntity
  8
_F-5_固定文字
  6
Continuous
 62
     7
100
AcDbLine
 10
102.5949081261966
 20
21.97064539727361
 30
0.0
 11
103.2894460760554
 21
21.2761074474148
 31
0.0
  0
LINE
  5
132
330
6B
100
AcDbEntity
  8
_F-5_固定文字
  6
Continuous
 62
     7
100
AcDbLine
 10
104.6748687023723
 20
19.74926346486136
 30
0.0
 11
104.8121966274042
 21
19.61193553982941
 31
0.0
  0
LINE
  5
133
330
6B
100
AcDbEntity
  8
_F-5_固定文字
  6
Continuous
 62
     7
100
AcDbLine
 10
102.5949081261968
 20
21.82922404103685
 30
0.0
 11
103.148024719819
 21
21.27610744741462
 31
0.0
  0
LINE
  5
134
330
6B
100
AcDbEntity
  8
_F-5_固定文字
  6
Continuous
 62
     7
100
AcDbLine
 10
102.5949081261971
 20
21.68780268479989
 30
0.0
 11
103.0066033635822
 21
21.2761074474148
 31
0.0
  0
LINE
  5
135
330
6B
100
AcDbEntity
  8
_F-5_固定文字
  6
Continuous
 62
     7
100
AcDbLine
 10
102.5949081261969
 20
21.54638132856164
 30
0.0
 11
102.8651820073437
 21
21.2761074474149
 31
0.0
  0
LINE
  5
136
330
6B
100
AcDbEntity
  8
_F-5_固定文字
  6
Continuous
 62
     7
100
AcDbLine
 10
102.5949081261969
 20
21.40495997232507
 30
0.0
 11
102.7237606511072
 21
21.27610744741472
 31
0.0
  0
LINE
  5
137
330
6B
100
AcDbEntity
  8
_F-5_固定文字
  6
Continuous
 62
     7
100
AcDbLine
 10
109.2836776101828
 20
24.05000000000055
 30
0.0
 11
109.3909342084985
 21
23.94274340168491
 31
0.0
  0
LINE
  5
138
330
6B
100
AcDbEntity
  8
_F-5_固定文字
  6
Continuous
 62
     7
100
AcDbLine
 10
109.142256253945
 20
24.04999999999999
 30
0.0
 11
109.3909342084979
 21
23.80132204544705
 31
0.0
  0
LINE
  5
139
330
6B
100
AcDbEntity
  8
_F-5_固定文字
  6
Continuous
 62
     7
100
AcDbLine
 10
109.0008348977081
 20
24.05000000000031
 30
0.0
 11
109.3909342084983
 21
23.65990068921011
 31
0.0
  0
LINE
  5
13A
330
6B
100
AcDbEntity
  8
_F-5_固定文字
  6
Continuous
 62
     7
100
AcDbLine
 10
108.8594135414715
 20
24.05000000000031
 30
0.0
 11
109.3909342084981
 21
23.51847933297367
 31
0.0
  0
LINE
  5
13B
330
6B
100
AcDbEntity
  8
_F-5_固定文字
  6
Continuous
 62
     7
100
AcDbLine
 10
108.7179921852333
 20
24.05000000000006
 30
0.0
 11
109.3909342084981
 21
23.37705797673529
 31
0.0
  0
LINE
  5
13C
330
6B
100
AcDbEntity
  8
_F-5_固定文字
  6
Continuous
 62
     7
100
AcDbLine
 10
108.5765708289963
 20
24.05000000000041
 30
0.0
 11
109.3909342084984
 21
23.23563662049834
 31
0.0
  0
LINE
  5
13D
330
6B
100
AcDbEntity
  8
_F-5_固定文字
  6
Continuous
 62
     7
100
AcDbLine
 10
108.4351494727599
 20
24.0500000000002
 30
0.0
 11
109.3909342084983
 21
23.09421526426191
 31
0.0
  0
LINE
  5
13E
330
6B
100
AcDbEntity
  8
_F-5_固定文字
  6
Continuous
 62
     7
100
AcDbLine
 10
108.2937281165216
 20
24.05000000000014
 30
0.0
 11
109.3909342084982
 21
22.95279390802352
 31
0.0
  0
LINE
  5
13F
330
6B
100
AcDbEntity
  8
_F-5_固定文字
  6
Continuous
 62
     7
100
AcDbLine
 10
108.1523067602847
 20
24.05000000000042
 30
0.0
 11
109.390934208498
 21
22.81137255178709
 31
0.0
  0
LINE
  5
140
330
6B
100
AcDbEntity
  8
_F-5_固定文字
  6
Continuous
 62
     7
100
AcDbLine
 10
108.0108854040468
 20
24.0499999999999
 30
0.0
 11
109.390934208498
 21
22.6699511955487
 31
0.0
  0
LINE
  5
141
330
6B
100
AcDbEntity
  8
_F-5_固定文字
  6
Continuous
 62
     7
100
AcDbLine
 10
108.0040289765624
 20
23.91543507124767
 30
0.0
 11
109.3909342084983
 21
22.52852983931176
 31
0.0
  0
LINE
  5
142
330
6B
100
AcDbEntity
  8
_F-5_固定文字
  6
Continuous
 62
     7
100
AcDbLine
 10
108.0040289765622
 20
23.77401371501125
 30
0.0
 11
109.3909342084982
 21
22.38710848307532
 31
0.0
  0
LINE
  5
143
330
6B
100
AcDbEntity
  8
_F-5_固定文字
  6
Continuous
 62
     7
100
AcDbLine
 10
108.0040289765622
 20
23.63259235877287
 30
0.0
 11
109.3909342084981
 21
22.24568712683694
 31
0.0
  0
LINE
  5
144
330
6B
100
AcDbEntity
  8
_F-5_固定文字
  6
Continuous
 62
     7
100
AcDbLine
 10
108.0040289765625
 20
23.49117100253591
 30
0.0
 11
109.3909342084979
 21
22.10426577060052
 31
0.0
  0
LINE
  5
145
330
6B
100
AcDbEntity
  8
_F-5_固定文字
  6
Continuous
 62
     7
100
AcDbLine
 10
107.4470551840233
 20
24.0481447950752
 30
0.0
 11
107.5879377056898
 21
23.90726227340862
 31
0.0
  0
LINE
  5
146
330
6B
100
AcDbEntity
  8
_F-5_固定文字
  6
Continuous
 62
     7
100
AcDbLine
 10
108.0040289765618
 20
23.34974964630001
 30
0.0
 11
109.3909342084977
 21
21.96284441436409
 31
0.0
  0
LINE
  5
147
330
6B
100
AcDbEntity
  8
_F-5_固定文字
  6
Continuous
 62
     7
100
AcDbLine
 10
107.3056338277869
 20
24.04814479507496
 30
0.0
 11
107.5879377056897
 21
23.76584091717217
 31
0.0
  0
LINE
  5
148
330
6B
100
AcDbEntity
  8
_F-5_固定文字
  6
Continuous
 62
     7
100
AcDbLine
 10
108.0040289765623
 20
23.20832829006111
 30
0.0
 11
109.3909342084983
 21
21.82142305812518
 31
0.0
  0
LINE
  5
149
330
6B
100
AcDbEntity
  8
_F-5_固定文字
  6
Continuous
 62
     7
100
AcDbLine
 10
107.164212471548
 20
24.04814479507543
 30
0.0
 11
107.5879377056902
 21
23.62441956093327
 31
0.0
  0
LINE
  5
14A
330
6B
100
AcDbEntity
  8
_F-5_固定文字
  6
Continuous
 62
     7
100
AcDbLine
 10
108.0040289765627
 20
23.06690693382414
 30
0.0
 11
109.3909342084981
 21
21.68000170188876
 31
0.0
  0
LINE
  5
14B
330
6B
100
AcDbEntity
  8
_F-5_固定文字
  6
Continuous
 62
     7
100
AcDbLine
 10
107.0227911153116
 20
24.04814479507523
 30
0.0
 11
107.58793770569
 21
23.48299820469683
 31
0.0
  0
LINE
  5
14C
330
6B
100
AcDbEntity
  8
_F-5_固定文字
  6
Continuous
 62
     7
100
AcDbLine
 10
108.0040289765621
 20
22.92548557758629
 30
0.0
 11
109.390934208498
 21
21.53858034565036
 31
0.0
  0
LINE
  5
14D
330
6B
100
AcDbEntity
  8
_F-5_固定文字
  6
Continuous
 62
     7
100
AcDbLine
 10
106.8813697590732
 20
24.04814479507519
 30
0.0
 11
107.58793770569
 21
23.34157684845836
 31
0.0
  0
LINE
  5
14E
330
6B
100
AcDbEntity
  8
_F-5_固定文字
  6
Continuous
 62
     7
100
AcDbLine
 10
108.0040289765625
 20
22.78406422134934
 30
0.0
 11
109.3909342084984
 21
21.39715898941341
 31
0.0
  0
LINE
  5
14F
330
6B
100
AcDbEntity
  8
_F-5_固定文字
  6
Continuous
 62
     7
100
AcDbLine
 10
106.7399484028364
 20
24.04814479507532
 30
0.0
 11
107.5879377056898
 21
23.20015549222201
 31
0.0
  0
LINE
  5
150
330
6B
100
AcDbEntity
  8
_F-5_固定文字
  6
Continuous
 62
     7
100
AcDbLine
 10
108.0040289765623
 20
22.6426428651129
 30
0.0
 11
109.3909342084982
 21
21.25573763317698
 31
0.0
  0
LINE
  5
151
330
6B
100
AcDbEntity
  8
_F-5_固定文字
  6
Continuous
 62
     7
100
AcDbLine
 10
106.5985270466004
 20
24.04814479507479
 30
0.0
 11
107.5879377056897
 21
23.05873413598546
 31
0.0
  0
LINE
  5
152
330
6B
100
AcDbEntity
  8
_F-5_固定文字
  6
Continuous
 62
     7
100
AcDbLine
 10
108.0040289765622
 20
22.50122150887452
 30
0.0
 11
109.3909342084982
 21
21.11431627693859
 31
0.0
  0
LINE
  5
153
330
6B
100
AcDbEntity
  8
_F-5_固定文字
  6
Continuous
 62
     7
100
AcDbLine
 10
106.4571056903615
 20
24.04814479507527
 30
0.0
 11
107.5879377056901
 21
22.91731277974665
 31
0.0
  0
LINE
  5
154
330
6B
100
AcDbEntity
  8
_F-5_固定文字
  6
Continuous
 62
     7
100
AcDbLine
 10
108.0040289765626
 20
22.35980015263756
 30
0.0
 11
109.390934208498
 21
20.97289492070217
 31
0.0
  0
LINE
  5
155
330
6B
100
AcDbEntity
  8
_F-5_固定文字
  6
Continuous
 62
     7
100
AcDbLine
 10
106.3156843341246
 20
24.04814479507556
 30
0.0
 11
107.5879377056899
 21
22.7758914235102
 31
0.0
  0
LINE
  5
156
330
6B
100
AcDbEntity
  8
_F-5_固定文字
  6
Continuous
 62
     7
100
AcDbLine
 10
108.004028976562
 20
22.2183787963997
 30
0.0
 11
109.3909342084979
 21
20.83147356446378
 31
0.0
  0
LINE
  5
157
330
6B
100
AcDbEntity
  8
_F-5_固定文字
  6
Continuous
 62
     7
100
AcDbLine
 10
106.2009668027831
 20
24.02144097017864
 30
0.0
 11
107.5879377056901
 21
22.63447006727165
 31
0.0
  0
LINE
  5
158
330
6B
100
AcDbEntity
  8
_F-5_固定文字
  6
Continuous
 62
     7
100
AcDbLine
 10
108.0040289765623
 20
22.07695744016277
 30
0.0
 11
109.3909342084983
 21
20.69005220822682
 31
0.0
  0
LINE
  5
159
330
6B
100
AcDbEntity
  8
_F-5_固定文字
  6
Continuous
 62
     7
100
AcDbLine
 10
106.2009668027835
 20
23.88001961394167
 30
0.0
 11
107.5879377056903
 21
22.49304871103487
 31
0.0
  0
LINE
  5
15A
330
6B
100
AcDbEntity
  8
_F-5_固定文字
  6
Continuous
 62
     7
100
AcDbLine
 10
108.0040289765622
 20
21.93553608392633
 30
0.0
 11
109.3909342084981
 21
20.54863085199041
 31
0.0
  0
LINE
  5
15B
330
6B
100
AcDbEntity
  8
_F-5_固定文字
  6
Continuous
 62
     7
100
AcDbLine
 10
106.2009668027833
 20
23.73859825770523
 30
0.0
 11
107.5879377056901
 21
22.35162735479843
 31
0.0
  0
LINE
  5
15C
330
6B
100
AcDbEntity
  8
_F-5_固定文字
  6
Continuous
 62
     7
100
AcDbLine
 10
108.0040289765621
 20
21.79411472768794
 30
0.0
 11
109.3909342084981
 21
20.40720949575201
 31
0.0
  0
LINE
  5
15D
330
6B
100
AcDbEntity
  8
_F-5_固定文字
  6
Continuous
 62
     7
100
AcDbLine
 10
106.2009668027833
 20
23.59717690146684
 30
0.0
 11
107.5879377056901
 21
22.21020599856003
 31
0.0
  0
LINE
  5
15E
330
6B
100
AcDbEntity
  8
_F-5_固定文字
  6
Continuous
 62
     7
100
AcDbLine
 10
108.0040289765625
 20
21.652693371451
 30
0.0
 11
109.3909342084979
 21
20.26578813951559
 31
0.0
  0
LINE
  5
15F
330
6B
100
AcDbEntity
  8
_F-5_固定文字
  6
Continuous
 62
     7
100
AcDbLine
 10
106.2009668027836
 20
23.45575554522989
 30
0.0
 11
107.5879377056899
 21
22.06878464232359
 31
0.0
  0
LINE
  5
160
330
6B
100
AcDbEntity
  8
_F-5_固定文字
  6
Continuous
 62
     7
100
AcDbLine
 10
108.0040289765618
 20
21.51127201521509
 30
0.0
 11
109.3909342084977
 21
20.12436678327917
 31
0.0
  0
LINE
  5
161
330
6B
100
AcDbEntity
  8
_F-5_固定文字
  6
Continuous
 62
     7
100
AcDbLine
 10
106.200966802783
 20
23.31433418899389
 30
0.0
 11
107.5879377056899
 21
21.92736328608692
 31
0.0
  0
LINE
  5
162
330
6B
100
AcDbEntity
  8
_F-5_固定文字
  6
Continuous
 62
     7
100
AcDbLine
 10
108.0040289765623
 20
21.36985065897618
 30
0.0
 11
109.3909342084982
 21
19.98294542704024
 31
0.0
  0
LINE
  5
163
330
6B
100
AcDbEntity
  8
_F-5_固定文字
  6
Continuous
 62
     7
100
AcDbLine
 10
106.2009668027834
 20
23.17291283275506
 30
0.0
 11
107.5879377056902
 21
21.78594192984823
 31
0.0
  0
LINE
  5
164
330
6B
100
AcDbEntity
  8
_F-5_固定文字
  6
Continuous
 62
     7
100
AcDbLine
 10
108.0040289765626
 20
21.22842930273923
 30
0.0
 11
109.390934208498
 21
19.84152407080383
 31
0.0
  0
LINE
  5
165
330
6B
100
AcDbEntity
  8
_F-5_固定文字
  6
Continuous
 62
     7
100
AcDbLine
 10
106.2009668027832
 20
23.03149147651863
 30
0.0
 11
107.58793770569
 21
21.64452057361181
 31
0.0
  0
LINE
  5
166
330
6B
100
AcDbEntity
  8
_F-5_固定文字
  6
Continuous
 62
     7
100
AcDbLine
 10
108.0040289765621
 20
21.08700794650136
 30
0.0
 11
109.390934208498
 21
19.70010271456543
 31
0.0
  0
LINE
  5
167
330
6B
100
AcDbEntity
  8
_F-5_固定文字
  6
Continuous
 62
     7
100
AcDbLine
 10
106.2009668027832
 20
22.89007012028023
 30
0.0
 11
107.58793770569
 21
21.50309921737342
 31
0.0
  0
LINE
  5
168
330
6B
100
AcDbEntity
  8
_F-5_固定文字
  6
Continuous
 62
     7
100
AcDbLine
 10
108.0040289765624
 20
20.94558659026441
 30
0.0
 11
109.3359523270042
 21
19.61366323982257
 31
0.0
  0
LINE
  5
169
330
6B
100
AcDbEntity
  8
_F-5_固定文字
  6
Continuous
 62
     7
100
AcDbLine
 10
106.2009668027835
 20
22.74864876404327
 30
0.0
 11
107.5879377056898
 21
21.36167786113698
 31
0.0
  0
LINE
  5
16A
330
6B
100
AcDbEntity
  8
_F-5_固定文字
  6
Continuous
 62
     7
100
AcDbLine
 10
108.0040289765617
 20
20.80416523402852
 30
0.0
 11
109.1945309707683
 21
19.61366323982185
 31
0.0
  0
LINE
  5
16B
330
6B
100
AcDbEntity
  8
_F-5_固定文字
  6
Continuous
 62
     7
100
AcDbLine
 10
106.200966802783
 20
22.60722740780719
 30
0.0
 11
107.58793770569
 21
21.22025650490021
 31
0.0
  0
LINE
  5
16C
330
6B
100
AcDbEntity
  8
_F-5_固定文字
  6
Continuous
 62
     7
100
AcDbLine
 10
108.0040289765622
 20
20.66274387778959
 30
0.0
 11
109.0531096145294
 21
19.61366323982232
 31
0.0
  0
LINE
  5
16D
330
6B
100
AcDbEntity
  8
_F-5_固定文字
  6
Continuous
 62
     7
100
AcDbLine
 10
106.2009668027833
 20
22.46580605156843
 30
0.0
 11
107.5879377056902
 21
21.07883514866163
 31
0.0
  0
LINE
  5
16E
330
6B
100
AcDbEntity
  8
_F-5_固定文字
  6
Continuous
 62
     7
100
AcDbLine
 10
108.0040289765625
 20
20.52132252155265
 30
0.0
 11
108.9116882582928
 21
19.61366323982232
 31
0.0
  0
LINE
  5
16F
330
6B
100
AcDbEntity
  8
_F-5_固定文字
  6
Continuous
 62
     7
100
AcDbLine
 10
106.2009668027837
 20
22.32438469533148
 30
0.0
 11
107.58793770569
 21
20.93741379242519
 31
0.0
  0
LINE
  5
170
330
6B
100
AcDbEntity
  8
_F-5_固定文字
  6
Continuous
 62
     7
100
AcDbLine
 10
108.0040289765618
 20
20.37990116531673
 30
0.0
 11
108.7702669020566
 21
19.61366323982192
 31
0.0
  0
LINE
  5
171
330
6B
100
AcDbEntity
  8
_F-5_固定文字
  6
Continuous
 62
     7
100
AcDbLine
 10
106.2009668027832
 20
22.18296333909535
 30
0.0
 11
107.5879377056902
 21
20.79599243618837
 31
0.0
  0
LINE
  5
172
330
6B
100
AcDbEntity
  8
_F-5_固定文字
  6
Continuous
 62
     7
100
AcDbLine
 10
108.0040289765623
 20
20.23847980907783
 30
0.0
 11
108.6288455458177
 21
19.6136632398224
 31
0.0
  0
LINE
  5
173
330
6B
100
AcDbEntity
  8
_F-5_固定文字
  6
Continuous
 62
     7
100
AcDbLine
 10
106.2009668027835
 20
22.04154198285665
 30
0.0
 11
107.5879377056903
 21
20.65457107994985
 31
0.0
  0
LINE
  5
174
330
6B
100
AcDbEntity
  8
_F-5_固定文字
  6
Continuous
 62
     7
100
AcDbLine
 10
108.0040289765621
 20
20.09705845284141
 30
0.0
 11
108.4874241895813
 21
19.6136632398222
 31
0.0
  0
LINE
  5
175
330
6B
100
AcDbEntity
  8
_F-5_固定文字
  6
Continuous
 62
     7
100
AcDbLine
 10
106.2009668027833
 20
21.90012062662021
 30
0.0
 11
107.5879377056901
 21
20.5131497237134
 31
0.0
  0
LINE
  5
176
330
6B
100
AcDbEntity
  8
_F-5_固定文字
  6
Continuous
 62
     7
100
AcDbLine
 10
108.0040289765621
 20
19.95563709660301
 30
0.0
 11
108.346002833343
 21
19.61366323982216
 31
0.0
  0
LINE
  5
177
330
6B
100
AcDbEntity
  8
_F-5_固定文字
  6
Continuous
 62
     7
100
AcDbLine
 10
106.2009668027833
 20
21.75869927038181
 30
0.0
 11
107.5879377056901
 21
20.371728367475
 31
0.0
  0
LINE
  5
178
330
6B
100
AcDbEntity
  8
_F-5_固定文字
  6
Continuous
 62
     7
100
AcDbLine
 10
108.0040289765625
 20
19.81421574036606
 30
0.0
 11
108.2045814771061
 21
19.61366323982241
 31
0.0
  0
LINE
  5
179
330
6B
100
AcDbEntity
  8
_F-5_固定文字
  6
Continuous
 62
     7
100
AcDbLine
 10
106.2009668027837
 20
21.61727791414486
 30
0.0
 11
107.5879377056899
 21
20.23030701123857
 31
0.0
  0
LINE
  5
17A
330
6B
100
AcDbEntity
  8
_F-5_固定文字
  6
Continuous
 62
     7
100
AcDbLine
 10
108.0040289765617
 20
19.67279438413017
 30
0.0
 11
108.0631601208701
 21
19.61366323982176
 31
0.0
  0
LINE
  5
17B
330
6B
100
AcDbEntity
  8
_F-5_固定文字
  6
Continuous
 62
     7
100
AcDbLine
 10
106.2009668027833
 20
21.47585655790864
 30
0.0
 11
107.5879377056903
 21
20.08888565500166
 31
0.0
  0
LINE
  5
17C
330
6B
100
AcDbEntity
  8
_F-5_固定文字
  6
Continuous
 62
     7
100
AcDbLine
 10
106.2009668027835
 20
21.33443520167004
 30
0.0
 11
107.5879377056903
 21
19.9474642987632
 31
0.0
  0
LINE
  5
17D
330
6B
100
AcDbEntity
  8
_F-5_固定文字
  6
Continuous
 62
     7
100
AcDbLine
 10
106.2009668027833
 20
21.1930138454336
 30
0.0
 11
107.5879377056901
 21
19.80604294252678
 31
0.0
  0
LINE
  5
17E
330
6B
100
AcDbEntity
  8
_F-5_固定文字
  6
Continuous
 62
     7
100
AcDbLine
 10
106.2009668027833
 20
21.0515924891952
 30
0.0
 11
107.5879377056901
 21
19.66462158628839
 31
0.0
  0
LINE
  5
17F
330
6B
100
AcDbEntity
  8
_F-5_固定文字
  6
Continuous
 62
     7
100
AcDbLine
 10
106.2009668027836
 20
20.91017113295824
 30
0.0
 11
107.4993463185871
 21
19.61179161715477
 31
0.0
  0
LINE
  5
180
330
6B
100
AcDbEntity
  8
_F-5_固定文字
  6
Continuous
 62
     7
100
AcDbLine
 10
106.2009668027833
 20
20.76874977672195
 30
0.0
 11
107.3579249623502
 21
19.61179161715508
 31
0.0
  0
LINE
  5
181
330
6B
100
AcDbEntity
  8
_F-5_固定文字
  6
Continuous
 62
     7
100
AcDbLine
 10
106.2009668027834
 20
20.6273284204834
 30
0.0
 11
107.2165036061118
 21
19.61179161715502
 31
0.0
  0
LINE
  5
182
330
6B
100
AcDbEntity
  8
_F-5_固定文字
  6
Continuous
 62
     7
100
AcDbLine
 10
106.2009668027838
 20
20.48590706424645
 30
0.0
 11
107.0750822498752
 21
19.61179161715502
 31
0.0
  0
LINE
  5
183
330
6B
100
AcDbEntity
  8
_F-5_固定文字
  6
Continuous
 62
     7
100
AcDbLine
 10
106.2009668027835
 20
20.34448570801009
 30
0.0
 11
106.9336608936384
 21
19.61179161715516
 31
0.0
  0
LINE
  5
184
330
6B
100
AcDbEntity
  8
_F-5_固定文字
  6
Continuous
 62
     7
100
AcDbLine
 10
106.2009668027836
 20
20.20306435177161
 30
0.0
 11
106.7922395374001
 21
19.6117916171551
 31
0.0
  0
LINE
  5
185
330
6B
100
AcDbEntity
  8
_F-5_固定文字
  6
Continuous
 62
     7
100
AcDbLine
 10
102.3558863594798
 20
24.0481447950754
 30
0.0
 11
102.4562767068773
 21
23.94775444767787
 31
0.0
  0
LINE
  5
186
330
6B
100
AcDbEntity
  8
_F-5_固定文字
  6
Continuous
 62
     7
100
AcDbLine
 10
106.2009668027833
 20
20.06164299553524
 30
0.0
 11
106.6508181811637
 21
19.61179161715491
 31
0.0
  0
LINE
  5
187
330
6B
100
AcDbEntity
  8
_F-5_固定文字
  6
Continuous
 62
     7
100
AcDbLine
 10
102.2144650032434
 20
24.04814479507518
 30
0.0
 11
102.4562767068777
 21
23.80633309144092
 31
0.0
  0
LINE
  5
188
330
6B
100
AcDbEntity
  8
_F-5_固定文字
  6
Continuous
 62
     7
100
AcDbLine
 10
106.2009668027833
 20
19.92022163929678
 30
0.0
 11
106.5093968249253
 21
19.61179161715485
 31
0.0
  0
LINE
  5
189
330
6B
100
AcDbEntity
  8
_F-5_固定文字
  6
Continuous
 62
     7
100
AcDbLine
 10
102.0730436470045
 20
24.04814479507566
 30
0.0
 11
102.4562767068776
 21
23.66491173520252
 31
0.0
  0
LINE
  5
18A
330
6B
100
AcDbEntity
  8
_F-5_固定文字
  6
Continuous
 62
     7
100
AcDbLine
 10
106.2009668027837
 20
19.77880028305984
 30
0.0
 11
106.3679754686884
 21
19.61179161715513
 31
0.0
  0
LINE
  5
18B
330
6B
100
AcDbEntity
  8
_F-5_固定文字
  6
Continuous
 62
     7
100
AcDbLine
 10
101.9316222907681
 20
24.04814479507548
 30
0.0
 11
102.4562767068774
 21
23.52349037896611
 31
0.0
  0
LINE
  5
18C
330
6B
100
AcDbEntity
  8
_F-5_固定文字
  6
Continuous
 62
     7
100
AcDbLine
 10
106.2009668027835
 20
19.6373789268234
 30
0.0
 11
106.2265541124519
 21
19.61179161715499
 31
0.0
  0
LINE
  5
18D
330
6B
100
AcDbEntity
  8
_F-5_固定文字
  6
Continuous
 62
     7
100
AcDbLine
 10
101.7902009345317
 20
24.04814479507527
 30
0.0
 11
102.4562767068773
 21
23.3820690227296
 31
0.0
  0
LINE
  5
18E
330
6B
100
AcDbEntity
  8
_F-5_固定文字
  6
Continuous
 62
     7
100
AcDbLine
 10
101.648779578293
 20
24.04814479507553
 30
0.0
 11
102.4562767068772
 21
23.24064766649128
 31
0.0
  0
LINE
  5
18F
330
6B
100
AcDbEntity
  8
_F-5_固定文字
  6
Continuous
 62
     7
100
AcDbLine
 10
101.5073582220563
 20
24.04814479507556
 30
0.0
 11
102.4562767068776
 21
23.09922631025433
 31
0.0
  0
LINE
  5
190
330
6B
100
AcDbEntity
  8
_F-5_固定文字
  6
Continuous
 62
     7
100
AcDbLine
 10
101.365936865818
 20
24.04814479507552
 30
0.0
 11
102.4562767068775
 21
22.95780495401594
 31
0.0
  0
LINE
  5
191
330
6B
100
AcDbEntity
  8
_F-5_固定文字
  6
Continuous
 62
     7
100
AcDbLine
 10
101.2245155095816
 20
24.04814479507532
 30
0.0
 11
102.4562767068774
 21
22.81638359777952
 31
0.0
  0
LINE
  5
192
330
6B
100
AcDbEntity
  8
_F-5_固定文字
  6
Continuous
 62
     7
100
AcDbLine
 10
101.0830941533451
 20
24.04814479507512
 30
0.0
 11
102.4562767068773
 21
22.67496224154293
 31
0.0
  0
LINE
  5
193
330
6B
100
AcDbEntity
  8
_F-5_固定文字
  6
Continuous
 62
     7
100
AcDbLine
 10
101.0693714749415
 20
23.92044611724034
 30
0.0
 11
102.4562767068771
 21
22.5335408853047
 31
0.0
  0
LINE
  5
194
330
6B
100
AcDbEntity
  8
_F-5_固定文字
  6
Continuous
 62
     7
100
AcDbLine
 10
101.0693714749413
 20
23.77902476100391
 30
0.0
 11
102.4562767068775
 21
22.39211952906774
 31
0.0
  0
LINE
  5
195
330
6B
100
AcDbEntity
  8
_F-5_固定文字
  6
Continuous
 62
     7
100
AcDbLine
 10
101.0693714749412
 20
23.63760340476743
 30
0.0
 11
102.4562767068775
 21
22.25069817283111
 31
0.0
  0
LINE
  5
196
330
6B
100
AcDbEntity
  8
_F-5_固定文字
  6
Continuous
 62
     7
100
AcDbLine
 10
100.6569748797087
 20
24.04999999999989
 30
0.0
 11
100.7918459524183
 21
23.91512892729037
 31
0.0
  0
LINE
  5
197
330
6B
100
AcDbEntity
  8
_F-5_固定文字
  6
Continuous
 62
     7
100
AcDbLine
 10
101.0693714749411
 20
23.49618204852907
 30
0.0
 11
102.4562767068773
 21
22.10927681659293
 31
0.0
  0
LINE
  5
198
330
6B
100
AcDbEntity
  8
_F-5_固定文字
  6
Continuous
 62
     7
100
AcDbLine
 10
100.5155535234703
 20
24.04999999999994
 30
0.0
 11
100.7918459524183
 21
23.77370757105197
 31
0.0
  0
LINE
  5
199
330
6B
100
AcDbEntity
  8
_F-5_固定文字
  6
Continuous
 62
     7
100
AcDbLine
 10
101.069371474941
 20
23.35476069229257
 30
0.0
 11
102.4562767068776
 21
21.96785546035598
 31
0.0
  0
LINE
  5
19A
330
6B
100
AcDbEntity
  8
_F-5_固定文字
  6
Continuous
 62
     7
100
AcDbLine
 10
100.3741321672334
 20
24.05000000000019
 30
0.0
 11
100.7918459524185
 21
23.63228621481507
 31
0.0
  0
LINE
  5
19B
330
6B
100
AcDbEntity
  8
_F-5_固定文字
  6
Continuous
 62
     7
100
AcDbLine
 10
101.0693714749415
 20
23.21333933605372
 30
0.0
 11
102.4562767068776
 21
21.82643410411758
 31
0.0
  0
LINE
  5
19C
330
6B
100
AcDbEntity
  8
_F-5_固定文字
  6
Continuous
 62
     7
100
AcDbLine
 10
100.232710810995
 20
24.05000000000014
 30
0.0
 11
100.7918459524185
 21
23.49086485857663
 31
0.0
  0
LINE
  5
19D
330
6B
100
AcDbEntity
  8
_F-5_固定文字
  6
Continuous
 62
     7
100
AcDbLine
 10
101.0693714749413
 20
23.07191797981729
 30
0.0
 11
102.4562767068774
 21
21.68501274788116
 31
0.0
  0
LINE
  5
19E
330
6B
100
AcDbEntity
  8
_F-5_固定文字
  6
Continuous
 62
     7
100
AcDbLine
 10
100.0912894547586
 20
24.04999999999994
 30
0.0
 11
100.7918459524183
 21
23.34944350234021
 31
0.0
  0
LINE
  5
19F
330
6B
100
AcDbEntity
  8
_F-5_固定文字
  6
Continuous
 62
     7
100
AcDbLine
 10
101.0693714749413
 20
22.93049662358073
 30
0.0
 11
102.4562767068775
 21
21.54359139164444
 31
0.0
  0
LINE
  5
1A0
330
6B
100
AcDbEntity
  8
_F-5_固定文字
  6
Continuous
 62
     7
100
AcDbLine
 10
99.94986809852225
 20
24.04999999999976
 30
0.0
 11
100.7918459524182
 21
23.20802214610379
 31
0.0
  0
LINE
  5
1A1
330
6B
100
AcDbEntity
  8
_F-5_固定文字
  6
Continuous
 62
     7
100
AcDbLine
 10
101.0693714749416
 20
22.78907526734195
 30
0.0
 11
102.4562767068772
 21
21.40217003540634
 31
0.0
  0
LINE
  5
1A2
330
6B
100
AcDbEntity
  8
_F-5_固定文字
  6
Continuous
 62
     7
100
AcDbLine
 10
99.8084467422835
 20
24.05000000000008
 30
0.0
 11
100.7918459524181
 21
23.06660078986539
 31
0.0
  0
LINE
  5
1A3
330
6B
100
AcDbEntity
  8
_F-5_固定文字
  6
Continuous
 62
     7
100
AcDbLine
 10
101.0693714749414
 20
22.64765391110552
 30
0.0
 11
102.4562767068775
 21
21.2607486791694
 31
0.0
  0
LINE
  5
1A4
330
6B
100
AcDbEntity
  8
_F-5_固定文字
  6
Continuous
 62
     7
100
AcDbLine
 10
99.66702538604691
 20
24.05000000000006
 30
0.0
 11
100.7918459524185
 21
22.92517943362843
 31
0.0
  0
LINE
  5
1A5
330
6B
100
AcDbEntity
  8
_F-5_固定文字
  6
Continuous
 62
     7
100
AcDbLine
 10
101.0693714749414
 20
22.50623255486711
 30
0.0
 11
102.4562767068775
 21
21.119327322931
 31
0.0
  0
LINE
  5
1A6
330
6B
100
AcDbEntity
  8
_F-5_固定文字
  6
Continuous
 62
     7
100
AcDbLine
 10
99.52560402980852
 20
24.05000000000001
 30
0.0
 11
100.7918459524185
 21
22.78375807739005
 31
0.0
  0
LINE
  5
1A7
330
6B
100
AcDbEntity
  8
_F-5_固定文字
  6
Continuous
 62
     7
100
AcDbLine
 10
101.0693714749412
 20
22.36481119863069
 30
0.0
 11
102.4562767068773
 21
20.97790596669458
 31
0.0
  0
LINE
  5
1A8
330
6B
100
AcDbEntity
  8
_F-5_固定文字
  6
Continuous
 62
     7
100
AcDbLine
 10
99.40494072048281
 20
24.02924195308909
 30
0.0
 11
100.7918459524183
 21
22.64233672115363
 31
0.0
  0
LINE
  5
1A9
330
6B
100
AcDbEntity
  8
_F-5_固定文字
  6
Continuous
 62
     7
100
AcDbLine
 10
101.0693714749413
 20
22.22338984239403
 30
0.0
 11
102.4562767068775
 21
20.83648461045777
 31
0.0
  0
LINE
  5
1AA
330
6B
100
AcDbEntity
  8
_F-5_固定文字
  6
Continuous
 62
     7
100
AcDbLine
 10
99.40494072048212
 20
23.88782059685319
 30
0.0
 11
100.7918459524181
 21
22.5009153649172
 31
0.0
  0
LINE
  5
1AB
330
6B
100
AcDbEntity
  8
_F-5_固定文字
  6
Continuous
 62
     7
100
AcDbLine
 10
99.24276131733549
 20
24.04999999999984
 30
0.0
 11
99.2566768801956
 21
24.03608443713971
 31
0.0
  0
LINE
  5
1AC
330
6B
100
AcDbEntity
  8
_F-5_固定文字
  6
Continuous
 62
     7
100
AcDbLine
 10
101.0693714749415
 20
22.08196848615532
 30
0.0
 11
102.4562767068771
 21
20.69506325421976
 31
0.0
  0
LINE
  5
1AD
330
6B
100
AcDbEntity
  8
_F-5_固定文字
  6
Continuous
 62
     7
100
AcDbLine
 10
99.40494072048259
 20
23.74639924061428
 30
0.0
 11
100.7918459524186
 21
22.35949400867828
 31
0.0
  0
LINE
  5
1AE
330
6B
100
AcDbEntity
  8
_F-5_固定文字
  6
Continuous
 62
     7
100
AcDbLine
 10
99.10133996109657
 20
24.05000000000033
 30
0.0
 11
99.19906148398151
 21
23.95227847711539
 31
0.0
  0
LINE
  5
1AF
330
6B
100
AcDbEntity
  8
_F-5_固定文字
  6
Continuous
 62
     7
100
AcDbLine
 10
101.0693714749414
 20
21.94054712991889
 30
0.0
 11
102.4562767068774
 21
20.5536418979828
 31
0.0
  0
LINE
  5
1B0
330
6B
100
AcDbEntity
  8
_F-5_固定文字
  6
Continuous
 62
     7
100
AcDbLine
 10
99.40494072048245
 20
23.60497788437786
 30
0.0
 11
100.7918459524184
 21
22.21807265244187
 31
0.0
  0
LINE
  5
1B1
330
6B
100
AcDbEntity
  8
_F-5_固定文字
  6
Continuous
 62
     7
100
AcDbLine
 10
98.95991860486015
 20
24.05000000000013
 30
0.0
 11
99.14144608776801
 21
23.86847251709227
 31
0.0
  0
LINE
  5
1B2
330
6B
100
AcDbEntity
  8
_F-5_固定文字
  6
Continuous
 62
     7
100
AcDbLine
 10
101.0693714749415
 20
21.79912577368219
 30
0.0
 11
102.4562767068777
 21
20.41222054174595
 31
0.0
  0
LINE
  5
1B3
330
6B
100
AcDbEntity
  8
_F-5_固定文字
  6
Continuous
 62
     7
100
AcDbLine
 10
99.40494072048224
 20
23.46355652814144
 30
0.0
 11
100.7918459524182
 21
22.07665129620544
 31
0.0
  0
LINE
  5
1B4
330
6B
100
AcDbEntity
  8
_F-5_固定文字
  6
Continuous
 62
     7
100
AcDbLine
 10
98.81849724862373
 20
24.04999999999994
 30
0.0
 11
99.08383069155457
 21
23.78466655706914
 31
0.0
  0
LINE
  5
1B5
330
6B
100
AcDbEntity
  8
_F-5_固定文字
  6
Continuous
 62
     7
100
AcDbLine
 10
101.0693714749412
 20
21.65770441744405
 30
0.0
 11
102.4562767068773
 21
20.27079918550798
 31
0.0
  0
LINE
  5
1B6
330
6B
100
AcDbEntity
  8
_F-5_固定文字
  6
Continuous
 62
     7
100
AcDbLine
 10
99.40494072048274
 20
23.32213517190252
 30
0.0
 11
100.7918459524182
 21
21.93522993996705
 31
0.0
  0
LINE
  5
1B7
330
6B
100
AcDbEntity
  8
_F-5_固定文字
  6
Continuous
 62
     7
100
AcDbLine
 10
98.67707589238513
 20
24.05000000000011
 30
0.0
 11
99.0262152953403
 21
23.70086059704492
 31
0.0
  0
LINE
  5
1B8
330
6B
100
AcDbEntity
  8
_F-5_固定文字
  6
Continuous
 62
     7
100
AcDbLine
 10
101.0693714749413
 20
21.51628306120732
 30
0.0
 11
102.4562767068775
 21
20.1293778292711
 31
0.0
  0
LINE
  5
1B9
330
6B
100
AcDbEntity
  8
_F-5_固定文字
  6
Continuous
 62
     7
100
AcDbLine
 10
99.40494072048204
 20
23.18071381566662
 30
0.0
 11
100.791845952418
 21
21.79380858373063
 31
0.0
  0
LINE
  5
1BA
330
6B
100
AcDbEntity
  8
_F-5_固定文字
  6
Continuous
 62
     7
100
AcDbLine
 10
98.53565453614896
 20
24.0499999999997
 30
0.0
 11
98.96859989912684
 21
23.6170546370218
 31
0.0
  0
LINE
  5
1BB
330
6B
100
AcDbEntity
  8
_F-5_固定文字
  6
Continuous
 62
     7
100
AcDbLine
 10
101.0693714749415
 20
21.37486170496869
 30
0.0
 11
102.456276706877
 21
19.98795647303317
 31
0.0
  0
LINE
  5
1BC
330
6B
100
AcDbEntity
  8
_F-5_固定文字
  6
Continuous
 62
     7
100
AcDbLine
 10
99.40494072048254
 20
23.0392924594277
 30
0.0
 11
100.7918459524185
 21
21.6523872274917
 31
0.0
  0
LINE
  5
1BD
330
6B
100
AcDbEntity
  8
_F-5_固定文字
  6
Continuous
 62
     7
100
AcDbLine
 10
98.39423317991007
 20
24.05000000000017
 30
0.0
 11
98.91098450291273
 21
23.53324867699749
 31
0.0
  0
LINE
  5
1BE
330
6B
100
AcDbEntity
  8
_F-5_固定文字
  6
Continuous
 62
     7
100
AcDbLine
 10
101.0693714749413
 20
21.23344034873227
 30
0.0
 11
102.4562767068774
 21
19.84653511679621
 31
0.0
  0
LINE
  5
1BF
330
6B
100
AcDbEntity
  8
_F-5_固定文字
  6
Continuous
 62
     7
100
AcDbLine
 10
99.40494072048235
 20
22.89787110319128
 30
0.0
 11
100.7918459524183
 21
21.51096587125528
 31
0.0
  0
LINE
  5
1C0
330
6B
100
AcDbEntity
  8
_F-5_固定文字
  6
Continuous
 62
     7
100
AcDbLine
 10
98.25281182367366
 20
24.04999999999999
 30
0.0
 11
98.85336910669927
 21
23.44944271697436
 31
0.0
  0
LINE
  5
1C1
330
6B
100
AcDbEntity
  8
_F-5_固定文字
  6
Continuous
 62
     7
100
AcDbLine
 10
101.0693714749415
 20
21.09201899249548
 30
0.0
 11
102.4562767068777
 21
19.70511376055927
 31
0.0
  0
LINE
  5
1C2
330
6B
100
AcDbEntity
  8
_F-5_固定文字
  6
Continuous
 62
     7
100
AcDbLine
 10
99.4049407204822
 20
22.75644974695486
 30
0.0
 11
100.7918459524181
 21
21.36954451501885
 31
0.0
  0
LINE
  5
1C3
330
6B
100
AcDbEntity
  8
_F-5_固定文字
  6
Continuous
 62
     7
100
AcDbLine
 10
98.11139046743724
 20
24.04999999999978
 30
0.0
 11
98.79575371048581
 21
23.36563675695121
 31
0.0
  0
LINE
  5
1C4
330
6B
100
AcDbEntity
  8
_F-5_固定文字
  6
Continuous
 62
     7
100
AcDbLine
 10
101.0693714749417
 20
20.95059763625692
 30
0.0
 11
102.4081774940436
 21
19.61179161715498
 31
0.0
  0
LINE
  5
1C5
330
6B
100
AcDbEntity
  8
_F-5_固定文字
  6
Continuous
 62
     7
100
AcDbLine
 10
99.40494072048265
 20
22.61502839071593
 30
0.0
 11
100.7918459524181
 21
21.22812315878046
 31
0.0
  0
LINE
  5
1C6
330
6B
100
AcDbEntity
  8
_F-5_固定文字
  6
Continuous
 62
     7
100
AcDbLine
 10
97.96996911119832
 20
24.05000000000027
 30
0.0
 11
98.73813831427167
 21
23.28183079692693
 31
0.0
  0
LINE
  5
1C7
330
6B
100
AcDbEntity
  8
_F-5_固定文字
  6
Continuous
 62
     7
100
AcDbLine
 10
101.0693714749413
 20
20.80917628002063
 30
0.0
 11
102.2667561378067
 21
19.61179161715532
 31
0.0
  0
LINE
  5
1C8
330
6B
100
AcDbEntity
  8
_F-5_固定文字
  6
Continuous
 62
     7
100
AcDbLine
 10
99.40494072048249
 20
22.47360703447952
 30
0.0
 11
100.7918459524185
 21
21.08670180254352
 31
0.0
  0
LINE
  5
1C9
330
6B
100
AcDbEntity
  8
_F-5_固定文字
  6
Continuous
 62
     7
100
AcDbLine
 10
97.85625107143257
 20
24.02229668352941
 30
0.0
 11
98.68052291805819
 21
23.1980248369038
 31
0.0
  0
LINE
  5
1CA
330
6B
100
AcDbEntity
  8
_F-5_固定文字
  6
Continuous
 62
     7
100
AcDbLine
 10
101.0693714749417
 20
20.66775492378367
 30
0.0
 11
102.1253347815697
 21
19.61179161715563
 31
0.0
  0
LINE
  5
1CB
330
6B
100
AcDbEntity
  8
_F-5_固定文字
  6
Continuous
 62
     7
100
AcDbLine
 10
99.40494072048227
 20
22.33218567824309
 30
0.0
 11
100.7918459524183
 21
20.9452804463071
 31
0.0
  0
LINE
  5
1CC
330
6B
100
AcDbEntity
  8
_F-5_固定文字
  6
Continuous
 62
     7
100
AcDbLine
 10
97.79196676905932
 20
23.94515962966607
 30
0.0
 11
98.6229075218447
 21
23.11421887688068
 31
0.0
  0
LINE
  5
1CD
330
6B
100
AcDbEntity
  8
_F-5_固定文字
  6
Continuous
 62
     7
100
AcDbLine
 10
101.0693714749413
 20
20.52633356754566
 30
0.0
 11
101.9839134253319
 21
19.61179161715504
 31
0.0
  0
LINE
  5
1CE
330
6B
100
AcDbEntity
  8
_F-5_固定文字
  6
Continuous
 62
     7
100
AcDbLine
 10
99.40494072048227
 20
22.1907643220047
 30
0.0
 11
100.7918459524183
 21
20.80385909006869
 31
0.0
  0
LINE
  5
1CF
330
6B
100
AcDbEntity
  8
_F-5_固定文字
  6
Continuous
 62
     7
100
AcDbLine
 10
97.72768246668526
 20
23.86802257580169
 30
0.0
 11
98.56529212563049
 21
23.03041291685647
 31
0.0
  0
LINE
  5
1D0
330
6B
100
AcDbEntity
  8
_F-5_固定文字
  6
Continuous
 62
     7
100
AcDbLine
 10
101.0693714749415
 20
20.38491221130879
 30
0.0
 11
101.8424920690949
 21
19.61179161715539
 31
0.0
  0
LINE
  5
1D1
330
6B
100
AcDbEntity
  8
_F-5_固定文字
  6
Continuous
 62
     7
100
AcDbLine
 10
99.4049407204821
 20
22.04934296576828
 30
0.0
 11
100.7918459524181
 21
20.66243773383228
 31
0.0
  0
LINE
  5
1D2
330
6B
100
AcDbEntity
  8
_F-5_固定文字
  6
Continuous
 62
     7
100
AcDbLine
 10
97.66339816431196
 20
23.79088552193839
 30
0.0
 11
98.50767672941705
 21
22.94660695683329
 31
0.0
  0
LINE
  5
1D3
330
6B
100
AcDbEntity
  8
_F-5_固定文字
  6
Continuous
 62
     7
100
AcDbLine
 10
101.0693714749416
 20
20.24349085507029
 30
0.0
 11
101.7010707128568
 21
19.6117916171551
 31
0.0
  0
LINE
  5
1D4
330
6B
100
AcDbEntity
  8
_F-5_固定文字
  6
Continuous
 62
     7
100
AcDbLine
 10
99.40494072048256
 20
21.90792160952936
 30
0.0
 11
100.7918459524185
 21
20.52101637759337
 31
0.0
  0
LINE
  5
1D5
330
6B
100
AcDbEntity
  8
_F-5_固定文字
  6
Continuous
 62
     7
100
AcDbLine
 10
97.59911386193792
 20
23.713748468074
 30
0.0
 11
98.45006133320291
 21
22.86280099680901
 31
0.0
  0
LINE
  5
1D6
330
6B
100
AcDbEntity
  8
_F-5_固定文字
  6
Continuous
 62
     7
100
AcDbLine
 10
101.0693714749414
 20
20.10206949883386
 30
0.0
 11
101.5596493566201
 21
19.61179161715515
 31
0.0
  0
LINE
  5
1D7
330
6B
100
AcDbEntity
  8
_F-5_固定文字
  6
Continuous
 62
     7
100
AcDbLine
 10
99.40494072048238
 20
21.76650025329293
 30
0.0
 11
100.7918459524183
 21
20.37959502135693
 31
0.0
  0
LINE
  5
1D8
330
6B
100
AcDbEntity
  8
_F-5_固定文字
  6
Continuous
 62
     7
100
AcDbLine
 10
97.53482955956464
 20
23.63661141421066
 30
0.0
 11
98.39244593698941
 21
22.7789950367859
 31
0.0
  0
LINE
  5
1D9
330
6B
100
AcDbEntity
  8
_F-5_固定文字
  6
Continuous
 62
     7
100
AcDbLine
 10
101.0693714749418
 20
19.96064814259693
 30
0.0
 11
101.4182280003832
 21
19.61179161715548
 31
0.0
  0
LINE
  5
1DA
330
6B
100
AcDbEntity
  8
_F-5_固定文字
  6
Continuous
 62
     7
100
AcDbLine
 10
99.4049407204822
 20
21.62507889705651
 30
0.0
 11
100.7918459524182
 21
20.23817366512052
 31
0.0
  0
LINE
  5
1DB
330
6B
100
AcDbEntity
  8
_F-5_固定文字
  6
Continuous
 62
     7
100
AcDbLine
 10
97.47054525719141
 20
23.55947436034732
 30
0.0
 11
98.33483054077593
 21
22.69518907676279
 31
0.0
  0
LINE
  5
1DC
330
6B
100
AcDbEntity
  8
_F-5_固定文字
  6
Continuous
 62
     7
100
AcDbLine
 10
101.0693714749413
 20
19.81922678635902
 30
0.0
 11
101.2768066441454
 21
19.61179161715491
 31
0.0
  0
LINE
  5
1DD
330
6B
100
AcDbEntity
  8
_F-5_固定文字
  6
Continuous
 62
     7
100
AcDbLine
 10
99.40494072048272
 20
21.48365754081758
 30
0.0
 11
100.7918459524181
 21
20.09675230888213
 31
0.0
  0
LINE
  5
1DE
330
6B
100
AcDbEntity
  8
_F-5_固定文字
  6
Continuous
 62
     7
100
AcDbLine
 10
97.40626095481736
 20
23.48233730648295
 30
0.0
 11
98.27721514456172
 21
22.61138311673857
 31
0.0
  0
LINE
  5
1DF
330
6B
100
AcDbEntity
  8
_F-5_固定文字
  6
Continuous
 62
     7
100
AcDbLine
 10
101.0693714749416
 20
19.67780543012208
 30
0.0
 11
101.1353852879084
 21
19.61179161715525
 31
0.0
  0
LINE
  5
1E0
330
6B
100
AcDbEntity
  8
_F-5_固定文字
  6
Continuous
 62
     7
100
AcDbLine
 10
99.40494072048201
 20
21.34223618458169
 30
0.0
 11
100.791845952418
 21
19.95533095264569
 31
0.0
  0
LINE
  5
1E1
330
6B
100
AcDbEntity
  8
_F-5_固定文字
  6
Continuous
 62
     7
100
AcDbLine
 10
97.34197665244403
 20
23.40520025261965
 30
0.0
 11
98.21959974834832
 21
22.52757715671537
 31
0.0
  0
LINE
  5
1E2
330
6B
100
AcDbEntity
  8
_F-5_固定文字
  6
Continuous
 62
     7
100
AcDbLine
 10
99.40494072048249
 20
21.20081482834279
 30
0.0
 11
100.7918459524185
 21
19.81390959640679
 31
0.0
  0
LINE
  5
1E3
330
6B
100
AcDbEntity
  8
_F-5_固定文字
  6
Continuous
 62
     7
100
AcDbLine
 10
97.27769235007002
 20
23.32806319875526
 30
0.0
 11
98.16198435213413
 21
22.44377119669112
 31
0.0
  0
LINE
  5
1E4
330
6B
100
AcDbEntity
  8
_F-5_固定文字
  6
Continuous
 62
     7
100
AcDbLine
 10
99.40494072048229
 20
21.05939347210635
 30
0.0
 11
100.7918459524183
 21
19.67248824017035
 31
0.0
  0
LINE
  5
1E5
330
6B
100
AcDbEntity
  8
_F-5_固定文字
  6
Continuous
 62
     7
100
AcDbLine
 10
97.21340804769674
 20
23.25092614489191
 30
0.0
 11
98.10436895592063
 21
22.359965236668
 31
0.0
  0
LINE
  5
1E6
330
6B
100
AcDbEntity
  8
_F-5_固定文字
  6
Continuous
 62
     7
100
AcDbLine
 10
99.40494072048212
 20
20.91797211586992
 30
0.0
 11
100.7092495965301
 21
19.61366323982191
 31
0.0
  0
LINE
  5
1E7
330
6B
100
AcDbEntity
  8
_F-5_固定文字
  6
Continuous
 62
     7
100
AcDbLine
 10
97.14912374532346
 20
23.17378909102858
 30
0.0
 11
98.04675355970724
 21
22.27615927664481
 31
0.0
  0
LINE
  5
1E8
330
6B
100
AcDbEntity
  8
_F-5_固定文字
  6
Continuous
 62
     7
100
AcDbLine
 10
96.27291283635228
 20
24.04999999999976
 30
0.0
 11
96.3536047340877
 21
23.96930810226438
 31
0.0
  0
LINE
  5
1E9
330
6B
100
AcDbEntity
  8
_F-5_固定文字
  6
Continuous
 62
     7
100
AcDbLine
 10
99.40494072048259
 20
20.77655075963101
 30
0.0
 11
100.5678282402917
 21
19.61366323982194
 31
0.0
  0
LINE
  5
1EA
330
6B
100
AcDbEntity
  8
_F-5_固定文字
  6
Continuous
 62
     7
100
AcDbLine
 10
97.08483944294941
 20
23.09665203716422
 30
0.0
 11
97.98913816349305
 21
22.19235331662057
 31
0.0
  0
LINE
  5
1EB
330
6B
100
AcDbEntity
  8
_F-5_固定文字
  6
Continuous
 62
     7
100
AcDbLine
 10
96.13149148011338
 20
24.05000000000024
 30
0.0
 11
96.35360473408816
 21
23.82788674602547
 31
0.0
  0
LINE
  5
1EC
330
6B
100
AcDbEntity
  8
_F-5_固定文字
  6
Continuous
 62
     7
100
AcDbLine
 10
99.40494072048245
 20
20.63512940339458
 30
0.0
 11
100.4264068840548
 21
19.6136632398222
 31
0.0
  0
LINE
  5
1ED
330
6B
100
AcDbEntity
  8
_F-5_固定文字
  6
Continuous
 62
     7
100
AcDbLine
 10
97.02055514057615
 20
23.01951498330086
 30
0.0
 11
97.93152276727958
 21
22.10854735659744
 31
0.0
  0
LINE
  5
1EE
330
6B
100
AcDbEntity
  8
_F-5_固定文字
  6
Continuous
 62
     7
100
AcDbLine
 10
95.99007012387684
 20
24.05000000000019
 30
0.0
 11
96.35360473408798
 21
23.68646538978905
 31
0.0
  0
LINE
  5
1EF
330
6B
100
AcDbEntity
  8
_F-5_固定文字
  6
Continuous
 62
     7
100
AcDbLine
 10
99.40494072048224
 20
20.49370804715818
 30
0.0
 11
100.2849855278184
 21
19.613663239822
 31
0.0
  0
LINE
  5
1F0
330
6B
100
AcDbEntity
  8
_F-5_固定文字
  6
Continuous
 62
     7
100
AcDbLine
 10
96.95627083820289
 20
22.94237792943754
 30
0.0
 11
97.87390737106607
 21
22.02474139657432
 31
0.0
  0
LINE
  5
1F1
330
6B
100
AcDbEntity
  8
_F-5_固定文字
  6
Continuous
 62
     7
100
AcDbLine
 10
95.84864876764056
 20
24.04999999999984
 30
0.0
 11
96.3536047340878
 21
23.54504403355261
 31
0.0
  0
LINE
  5
1F2
330
6B
100
AcDbEntity
  8
_F-5_固定文字
  6
Continuous
 62
     7
100
AcDbLine
 10
99.4049407204822
 20
20.35228669091976
 30
0.0
 11
100.14356417158
 21
19.61366323982196
 31
0.0
  0
LINE
  5
1F3
330
6B
100
AcDbEntity
  8
_F-5_固定文字
  6
Continuous
 62
     7
100
AcDbLine
 10
96.89198653582881
 20
22.86524087557318
 30
0.0
 11
97.81629197485187
 21
21.94093543655009
 31
0.0
  0
LINE
  5
1F4
330
6B
100
AcDbEntity
  8
_F-5_固定文字
  6
Continuous
 62
     7
100
AcDbLine
 10
95.70722741140164
 20
24.05000000000033
 30
0.0
 11
96.3536047340883
 21
23.40362267731369
 31
0.0
  0
LINE
  5
1F5
330
6B
100
AcDbEntity
  8
_F-5_固定文字
  6
Continuous
 62
     7
100
AcDbLine
 10
99.40494072048204
 20
20.21086533468335
 30
0.0
 11
100.0021428153436
 21
19.61366323982177
 31
0.0
  0
LINE
  5
1F6
330
6B
100
AcDbEntity
  8
_F-5_固定文字
  6
Continuous
 62
     7
100
AcDbLine
 10
96.82770223345556
 20
22.78810382170981
 30
0.0
 11
97.7586765786385
 21
21.85712947652688
 31
0.0
  0
LINE
  5
1F7
330
6B
100
AcDbEntity
  8
_F-5_固定文字
  6
Continuous
 62
     7
100
AcDbLine
 10
95.56580605516577
 20
24.0499999999996
 30
0.0
 11
96.3536047340877
 21
23.26220132107771
 31
0.0
  0
LINE
  5
1F8
330
6B
100
AcDbEntity
  8
_F-5_固定文字
  6
Continuous
 62
     7
100
AcDbLine
 10
99.40494072048252
 20
20.06944397844444
 30
0.0
 11
99.86072145910489
 21
19.61366323982207
 31
0.0
  0
LINE
  5
1F9
330
6B
100
AcDbEntity
  8
_F-5_固定文字
  6
Continuous
 62
     7
100
AcDbLine
 10
96.7634179310815
 20
22.71096676784546
 30
0.0
 11
97.95436236699696
 21
21.52002233193
 31
0.0
  0
LINE
  5
1FA
330
6B
100
AcDbEntity
  8
_F-5_固定文字
  6
Continuous
 62
     7
100
AcDbLine
 10
95.42438469892687
 20
24.05000000000008
 30
0.0
 11
96.35360473408805
 21
23.12077996483889
 31
0.0
  0
LINE
  5
1FB
330
6B
100
AcDbEntity
  8
_F-5_固定文字
  6
Continuous
 62
     7
100
AcDbLine
 10
99.40494072048235
 20
19.928022622208
 30
0.0
 11
99.71930010286829
 21
19.61366323982206
 31
0.0
  0
LINE
  5
1FC
330
6B
100
AcDbEntity
  8
_F-5_固定文字
  6
Continuous
 62
     7
100
AcDbLine
 10
96.69913362870822
 20
22.63382971398212
 30
0.0
 11
98.26546859333866
 21
21.06749474935173
 31
0.0
  0
LINE
  5
1FD
330
6B
100
AcDbEntity
  8
_F-5_固定文字
  6
Continuous
 62
     7
100
AcDbLine
 10
95.28296334269006
 20
24.0500000000003
 30
0.0
 11
96.35360473408788
 21
22.97935860860247
 31
0.0
  0
LINE
  5
1FE
330
6B
100
AcDbEntity
  8
_F-5_固定文字
  6
Continuous
 62
     7
100
AcDbLine
 10
99.4049407204822
 20
19.7866012659716
 30
0.0
 11
99.57787874663187
 21
19.61366323982187
 31
0.0
  0
LINE
  5
1FF
330
6B
100
AcDbEntity
  8
_F-5_固定文字
  6
Continuous
 62
     7
100
AcDbLine
 10
96.63484932633499
 20
22.55669266011876
 30
0.0
 11
98.57657481968185
 21
20.61496716677189
 31
0.0
  0
LINE
  5
200
330
6B
100
AcDbEntity
  8
_F-5_固定文字
  6
Continuous
 62
     7
100
AcDbLine
 10
95.14154198645405
 20
24.04999999999969
 30
0.0
 11
96.35360473408786
 21
22.83793725236589
 31
0.0
  0
LINE
  5
201
330
6B
100
AcDbEntity
  8
_F-5_固定文字
  6
Continuous
 62
     7
100
AcDbLine
 10
99.40494072048265
 20
19.64517990973266
 30
0.0
 11
99.43645739039295
 21
19.61366323982234
 31
0.0
  0
LINE
  5
202
330
6B
100
AcDbEntity
  8
_F-5_固定文字
  6
Continuous
 62
     7
100
AcDbLine
 10
96.57056502396091
 20
22.4795556062544
 30
0.0
 11
98.88768104602673
 21
20.16243958418859
 31
0.0
  0
LINE
  5
203
330
6B
100
AcDbEntity
  8
_F-5_固定文字
  6
Continuous
 62
     7
100
AcDbLine
 10
95.00012063021515
 20
24.05000000000017
 30
0.0
 11
96.35360473408821
 21
22.69651589612711
 31
0.0
  0
LINE
  5
204
330
6B
100
AcDbEntity
  8
_F-5_固定文字
  6
Continuous
 62
     7
100
AcDbLine
 10
96.5062807215876
 20
22.40241855239112
 30
0.0
 11
99.19878727237124
 21
19.70991200160748
 31
0.0
  0
LINE
  5
205
330
6B
100
AcDbEntity
  8
_F-5_固定文字
  6
Continuous
 62
     7
100
AcDbLine
 10
94.96666666666667
 20
23.94203260731203
 30
0.0
 11
96.3536047340877
 21
22.55509453989104
 31
0.0
  0
LINE
  5
206
330
6B
100
AcDbEntity
  8
_F-5_固定文字
  6
Continuous
 62
     7
100
AcDbLine
 10
96.49233465986425
 20
22.27494325787787
 30
0.0
 11
99.15548630058715
 21
19.61179161715496
 31
0.0
  0
LINE
  5
207
330
6B
100
AcDbEntity
  8
_F-5_固定文字
  6
Continuous
 62
     7
100
AcDbLine
 10
94.96666666666651
 20
23.80061125107562
 30
0.0
 11
96.35360473408786
 21
22.41367318365426
 31
0.0
  0
LINE
  5
208
330
6B
100
AcDbEntity
  8
_F-5_固定文字
  6
Continuous
 62
     7
100
AcDbLine
 10
96.49233465986419
 20
22.13352190163947
 30
0.0
 11
99.01406494434878
 21
19.61179161715492
 31
0.0
  0
LINE
  5
209
330
6B
100
AcDbEntity
  8
_F-5_固定文字
  6
Continuous
 62
     7
100
AcDbLine
 10
94.96666666666698
 20
23.65918989483672
 30
0.0
 11
96.35360473408837
 21
22.27225182741534
 31
0.0
  0
LINE
  5
20A
330
6B
100
AcDbEntity
  8
_F-5_固定文字
  6
Continuous
 62
     7
100
AcDbLine
 10
96.49233465986348
 20
21.99210054540358
 30
0.0
 11
98.87264358811185
 21
19.61179161715525
 31
0.0
  0
LINE
  5
20B
330
6B
100
AcDbEntity
  8
_F-5_固定文字
  6
Continuous
 62
     7
100
AcDbLine
 10
94.96666666666634
 20
23.51776853860075
 30
0.0
 11
96.35360473408788
 21
22.13083047117921
 31
0.0
  0
LINE
  5
20C
330
6B
100
AcDbEntity
  8
_F-5_固定文字
  6
Continuous
 62
     7
100
AcDbLine
 10
96.49233465986371
 20
21.85067918916492
 30
0.0
 11
98.73122223187376
 21
19.61179161715489
 31
0.0
  0
LINE
  5
20D
330
6B
100
AcDbEntity
  8
_F-5_固定文字
  6
Continuous
 62
     7
100
AcDbLine
 10
94.96666666666676
 20
23.37634718236189
 30
0.0
 11
96.35360473408812
 21
21.98940911494053
 31
0.0
  0
LINE
  5
20E
330
6B
100
AcDbEntity
  8
_F-5_固定文字
  6
Continuous
 62
     7
100
AcDbLine
 10
96.49233465986384
 20
21.70925783292821
 30
0.0
 11
98.58980087563701
 21
19.61179161715502
 31
0.0
  0
LINE
  5
20F
330
6B
100
AcDbEntity
  8
_F-5_固定文字
  6
Continuous
 62
     7
100
AcDbLine
 10
94.96666666666667
 20
23.23492582612536
 30
0.0
 11
96.3536047340877
 21
21.84798775870437
 31
0.0
  0
LINE
  5
210
330
6B
100
AcDbEntity
  8
_F-5_固定文字
  6
Continuous
 62
     7
100
AcDbLine
 10
96.49233465986364
 20
21.5678364766918
 30
0.0
 11
98.44837951940061
 21
19.61179161715482
 31
0.0
  0
LINE
  5
211
330
6B
100
AcDbEntity
  8
_F-5_固定文字
  6
Continuous
 62
     7
100
AcDbLine
 10
94.96666666666641
 20
23.09350446988904
 30
0.0
 11
96.35360473408777
 21
21.70656640246767
 31
0.0
  0
LINE
  5
212
330
6B
100
AcDbEntity
  8
_F-5_固定文字
  6
Continuous
 62
     7
100
AcDbLine
 10
96.49233465986409
 20
21.42641512045294
 30
0.0
 11
98.30695816316186
 21
19.61179161715513
 31
0.0
  0
LINE
  5
213
330
6B
100
AcDbEntity
  8
_F-5_固定文字
  6
Continuous
 62
     7
100
AcDbLine
 10
94.96666666666687
 20
22.95208311365013
 30
0.0
 11
96.35360473408827
 21
21.56514504622875
 31
0.0
  0
LINE
  5
214
330
6B
100
AcDbEntity
  8
_F-5_固定文字
  6
Continuous
 62
     7
100
AcDbLine
 10
96.49233465986394
 20
21.28499376421645
 30
0.0
 11
98.1655368069253
 21
19.6117916171551
 31
0.0
  0
LINE
  5
215
330
6B
100
AcDbEntity
  8
_F-5_固定文字
  6
Continuous
 62
     7
100
AcDbLine
 10
94.96666666666634
 20
22.81066175741407
 30
0.0
 11
96.35360473408788
 21
21.42372368999255
 31
0.0
  0
LINE
  5
216
330
6B
100
AcDbEntity
  8
_F-5_固定文字
  6
Continuous
 62
     7
100
AcDbLine
 10
97.15522171224419
 20
20.4806853555978
 30
0.0
 11
98.02411545068691
 21
19.61179161715504
 31
0.0
  0
LINE
  5
217
330
6B
100
AcDbEntity
  8
_F-5_固定文字
  6
Continuous
 62
     7
100
AcDbLine
 10
94.96666666666667
 20
22.6692404011753
 30
0.0
 11
96.35360473408804
 21
21.28230233375395
 31
0.0
  0
LINE
  5
218
330
6B
100
AcDbEntity
  8
_F-5_固定文字
  6
Continuous
 62
     7
100
AcDbLine
 10
97.86255455325481
 20
19.63193115835056
 30
0.0
 11
97.88269409445051
 21
19.61179161715486
 31
0.0
  0
LINE
  5
219
330
6B
100
AcDbEntity
  8
_F-5_固定文字
  6
Continuous
 62
     7
100
AcDbLine
 10
94.96666666666703
 20
22.52781904493835
 30
0.0
 11
96.35360473408788
 21
21.14088097751751
 31
0.0
  0
LINE
  5
21A
330
6B
100
AcDbEntity
  8
_F-5_固定文字
  6
Continuous
 62
     7
100
AcDbLine
 10
94.96666666666651
 20
22.38639768870225
 30
0.0
 11
96.35360473408804
 21
20.99945962128072
 31
0.0
  0
LINE
  5
21B
330
6B
100
AcDbEntity
  8
_F-5_固定文字
  6
Continuous
 62
     7
100
AcDbLine
 10
94.9666666666668
 20
22.24497633246355
 30
0.0
 11
96.3536047340882
 21
20.85803826504217
 31
0.0
  0
LINE
  5
21C
330
6B
100
AcDbEntity
  8
_F-5_固定文字
  6
Continuous
 62
     7
100
AcDbLine
 10
94.96666666666687
 20
22.10355497622687
 30
0.0
 11
96.35360473408788
 21
20.71661690880588
 31
0.0
  0
LINE
  5
21D
330
6B
100
AcDbEntity
  8
_F-5_固定文字
  6
Continuous
 62
     7
100
AcDbLine
 10
94.96666666666643
 20
21.96213361999068
 30
0.0
 11
96.3536047340878
 21
20.57519555256931
 31
0.0
  0
LINE
  5
21E
330
6B
100
AcDbEntity
  8
_F-5_固定文字
  6
Continuous
 62
     7
100
AcDbLine
 10
94.96666666666696
 20
21.82071226375176
 30
0.0
 11
96.3536047340883
 21
20.43377419633041
 31
0.0
  0
LINE
  5
21F
330
6B
100
AcDbEntity
  8
_F-5_固定文字
  6
Continuous
 62
     7
100
AcDbLine
 10
94.96666666666651
 20
21.67929090751557
 30
0.0
 11
96.35360473408804
 21
20.29235284009405
 31
0.0
  0
LINE
  5
220
330
6B
100
AcDbEntity
  8
_F-5_固定文字
  6
Continuous
 62
     7
100
AcDbLine
 10
94.96666666666675
 20
21.53786955127694
 30
0.0
 11
96.35360473408809
 21
20.15093148385559
 31
0.0
  0
LINE
  5
221
330
6B
100
AcDbEntity
  8
_F-5_固定文字
  6
Continuous
 62
     7
100
AcDbLine
 10
94.96666666666687
 20
21.39644819504021
 30
0.0
 11
96.35360473408788
 21
20.00951012761921
 31
0.0
  0
LINE
  5
222
330
6B
100
AcDbEntity
  8
_F-5_固定文字
  6
Continuous
 62
     7
100
AcDbLine
 10
94.96666666666635
 20
21.2550268388041
 30
0.0
 11
96.35360473408772
 21
19.86808877138273
 31
0.0
  0
LINE
  5
223
330
6B
100
AcDbEntity
  8
_F-5_固定文字
  6
Continuous
 62
     7
100
AcDbLine
 10
94.96666666666687
 20
21.11360548256518
 30
0.0
 11
96.35360473408823
 21
19.7266674151438
 31
0.0
  0
LINE
  5
224
330
6B
100
AcDbEntity
  8
_F-5_固定文字
  6
Continuous
 62
     7
100
AcDbLine
 10
94.96666666666651
 20
20.97218412632892
 30
0.0
 11
96.32705917584036
 21
19.61179161715508
 31
0.0
  0
LINE
  5
225
330
6B
100
AcDbEntity
  8
_F-5_固定文字
  6
Continuous
 62
     7
100
AcDbLine
 10
94.96666666666667
 20
20.83076277009036
 30
0.0
 11
96.18563781960196
 21
19.61179161715503
 31
0.0
  0
LINE
  5
226
330
6B
100
AcDbEntity
  8
_F-5_固定文字
  6
Continuous
 62
     7
100
AcDbLine
 10
94.96666666666701
 20
20.68934141385341
 30
0.0
 11
96.04421646336545
 21
19.61179161715495
 31
0.0
  0
LINE
  5
227
330
6B
100
AcDbEntity
  8
_F-5_固定文字
  6
Continuous
 62
     7
100
AcDbLine
 10
94.96666666666628
 20
20.54792005761751
 30
0.0
 11
95.90279510712916
 21
19.61179161715464
 31
0.0
  0
LINE
  5
228
330
6B
100
AcDbEntity
  8
_F-5_固定文字
  6
Continuous
 62
     7
100
AcDbLine
 10
94.96666666666676
 20
20.40649870137859
 30
0.0
 11
95.76137375089023
 21
19.61179161715512
 31
0.0
  0
LINE
  5
229
330
6B
100
AcDbEntity
  8
_F-5_固定文字
  6
Continuous
 62
     7
100
AcDbLine
 10
94.96666666666651
 20
20.26507734514225
 30
0.0
 11
95.61995239465383
 21
19.61179161715492
 31
0.0
  0
LINE
  5
22A
330
6B
100
AcDbEntity
  8
_F-5_固定文字
  6
Continuous
 62
     7
100
AcDbLine
 10
94.96666666666643
 20
20.12365598890573
 30
0.0
 11
95.47853103841744
 21
19.61179161715473
 31
0.0
  0
LINE
  5
22B
330
6B
100
AcDbEntity
  8
_F-5_固定文字
  6
Continuous
 62
     7
100
AcDbLine
 10
94.96666666666692
 20
19.98223463266682
 30
0.0
 11
95.33710968217869
 21
19.61179161715507
 31
0.0
  0
LINE
  5
22C
330
6B
100
AcDbEntity
  8
_F-5_固定文字
  6
Continuous
 62
     7
100
AcDbLine
 10
94.96666666666671
 20
19.84081327643041
 30
0.0
 11
95.19568832594213
 21
19.61179161715501
 31
0.0
  0
LINE
  5
22D
330
6B
100
AcDbEntity
  8
_F-5_固定文字
  6
Continuous
 62
     7
100
AcDbLine
 10
94.96666666666671
 20
19.699391920192
 30
0.0
 11
95.05426696970372
 21
19.61179161715496
 31
0.0
  0
LINE
  5
22E
330
6B
100
AcDbEntity
  8
_F-5_固定文字
  6
Continuous
 62
     7
100
AcDbLine
 10
94.96666666666635
 20
23.932801859168
 30
0.0
 11
95.08386480749864
 21
24.05000000000028
 31
0.0
  0
LINE
  5
22F
330
6B
100
AcDbEntity
  8
_F-5_固定文字
  6
Continuous
 62
     7
100
AcDbLine
 10
94.96666666666641
 20
23.79138050292961
 30
0.0
 11
95.22528616373717
 21
24.05000000000035
 31
0.0
  0
LINE
  5
230
330
6B
100
AcDbEntity
  8
_F-5_固定文字
  6
Continuous
 62
     7
100
AcDbLine
 10
94.96666666666653
 20
23.64995914669313
 30
0.0
 11
95.36670751997343
 21
24.05000000000004
 31
0.0
  0
LINE
  5
231
330
6B
100
AcDbEntity
  8
_F-5_固定文字
  6
Continuous
 62
     7
100
AcDbLine
 10
94.96666666666609
 20
23.50853779045427
 30
0.0
 11
95.50812887621237
 21
24.05000000000053
 31
0.0
  0
LINE
  5
232
330
6B
100
AcDbEntity
  8
_F-5_固定文字
  6
Continuous
 62
     7
100
AcDbLine
 10
94.96666666666628
 20
23.36711643421784
 30
0.0
 11
95.649550232449
 21
24.05000000000058
 31
0.0
  0
LINE
  5
233
330
6B
100
AcDbEntity
  8
_F-5_固定文字
  6
Continuous
 62
     7
100
AcDbLine
 10
94.96666666666635
 20
23.22569507798132
 30
0.0
 11
95.79097158868515
 21
24.05000000000013
 31
0.0
  0
LINE
  5
234
330
6B
100
AcDbEntity
  8
_F-5_固定文字
  6
Continuous
 62
     7
100
AcDbLine
 10
94.96666666666596
 20
23.08427372174249
 30
0.0
 11
95.93239294492409
 21
24.05000000000061
 31
0.0
  0
LINE
  5
235
330
6B
100
AcDbEntity
  8
_F-5_固定文字
  6
Continuous
 62
     7
100
AcDbLine
 10
94.96666666666653
 20
22.94285236550647
 30
0.0
 11
96.07381430115996
 21
24.0499999999999
 31
0.0
  0
LINE
  5
236
330
6B
100
AcDbEntity
  8
_F-5_固定文字
  6
Continuous
 62
     7
100
AcDbLine
 10
94.96666666666618
 20
22.80143100926768
 30
0.0
 11
96.21523565739884
 21
24.05000000000035
 31
0.0
  0
LINE
  5
237
330
6B
100
AcDbEntity
  8
_F-5_固定文字
  6
Continuous
 62
     7
100
AcDbLine
 10
94.96666666666635
 20
22.66000965303125
 30
0.0
 11
96.35360473408718
 21
24.04694772045208
 31
0.0
  0
LINE
  5
238
330
6B
100
AcDbEntity
  8
_F-5_固定文字
  6
Continuous
 62
     7
100
AcDbLine
 10
94.96666666666635
 20
22.51858829679466
 30
0.0
 11
96.35360473408788
 21
23.90552636421617
 31
0.0
  0
LINE
  5
239
330
6B
100
AcDbEntity
  8
_F-5_固定文字
  6
Continuous
 62
     7
100
AcDbLine
 10
94.96666666666603
 20
22.37716694055591
 30
0.0
 11
96.35360473408741
 21
23.76410500797727
 31
0.0
  0
LINE
  5
23A
330
6B
100
AcDbEntity
  8
_F-5_固定文字
  6
Continuous
 62
     7
100
AcDbLine
 10
94.96666666666653
 20
22.2357455843198
 30
0.0
 11
96.35360473408804
 21
23.62268365174131
 31
0.0
  0
LINE
  5
23B
330
6B
100
AcDbEntity
  8
_F-5_固定文字
  6
Continuous
 62
     7
100
AcDbLine
 10
94.96666666666641
 20
22.09432422808307
 30
0.0
 11
96.35360473408777
 21
23.48126229550443
 31
0.0
  0
LINE
  5
23C
330
6B
100
AcDbEntity
  8
_F-5_固定文字
  6
Continuous
 62
     7
100
AcDbLine
 10
94.96666666666643
 20
21.95290287184468
 30
0.0
 11
96.35360473408727
 21
23.3398409392655
 31
0.0
  0
LINE
  5
23D
330
6B
100
AcDbEntity
  8
_F-5_固定文字
  6
Continuous
 62
     7
100
AcDbLine
 10
94.96666666666634
 20
21.81148151560797
 30
0.0
 11
96.35360473408788
 21
23.19841958302949
 31
0.0
  0
LINE
  5
23E
330
6B
100
AcDbEntity
  8
_F-5_固定文字
  6
Continuous
 62
     7
100
AcDbLine
 10
94.96666666666612
 20
21.67006015936932
 30
0.0
 11
96.35360473408749
 21
23.0569982267907
 31
0.0
  0
LINE
  5
23F
330
6B
100
AcDbEntity
  8
_F-5_固定文字
  6
Continuous
 62
     7
100
AcDbLine
 10
94.96666666666628
 20
21.52863880313289
 30
0.0
 11
96.35360473408715
 21
22.91557687055373
 31
0.0
  0
LINE
  5
240
330
6B
100
AcDbEntity
  8
_F-5_固定文字
  6
Continuous
 62
     7
100
AcDbLine
 10
94.96666666666618
 20
21.38721744689616
 30
0.0
 11
96.3536047340877
 21
22.77415551431769
 31
0.0
  0
LINE
  5
241
330
6B
100
AcDbEntity
  8
_F-5_固定文字
  6
Continuous
 62
     7
100
AcDbLine
 10
94.96666666666598
 20
21.24579609065754
 30
0.0
 11
96.35360473408736
 21
22.63273415807892
 31
0.0
  0
LINE
  5
242
330
6B
100
AcDbEntity
  8
_F-5_固定文字
  6
Continuous
 62
     7
100
AcDbLine
 10
97.71451805260184
 20
23.85222612035679
 30
0.0
 11
97.91229193224493
 21
24.04999999999989
 31
0.0
  0
LINE
  5
243
330
6B
100
AcDbEntity
  8
_F-5_固定文字
  6
Continuous
 62
     7
100
AcDbLine
 10
94.96666666666634
 20
21.1043747344213
 30
0.0
 11
96.35360473408788
 21
22.49131280184283
 31
0.0
  0
LINE
  5
244
330
6B
100
AcDbEntity
  8
_F-5_固定文字
  6
Continuous
 62
     7
100
AcDbLine
 10
97.00718521157533
 20
23.00347192309187
 30
0.0
 11
98.0537132884838
 21
24.05000000000033
 31
0.0
  0
LINE
  5
245
330
6B
100
AcDbEntity
  8
_F-5_固定文字
  6
Continuous
 62
     7
100
AcDbLine
 10
94.96666666666619
 20
20.96295337818272
 30
0.0
 11
96.35360473408757
 21
22.3498914456041
 31
0.0
  0
LINE
  5
246
330
6B
100
AcDbEntity
  8
_F-5_固定文字
  6
Continuous
 62
     7
100
AcDbLine
 10
96.49233465986412
 20
22.34720001514405
 30
0.0
 11
98.19513464472073
 21
24.05000000000066
 31
0.0
  0
LINE
  5
247
330
6B
100
AcDbEntity
  8
_F-5_固定文字
  6
Continuous
 62
     7
100
AcDbLine
 10
94.96666666666635
 20
20.8215320219463
 30
0.0
 11
96.35360473408722
 21
22.20847008936716
 31
0.0
  0
LINE
  5
248
330
6B
100
AcDbEntity
  8
_F-5_固定文字
  6
Continuous
 62
     7
100
AcDbLine
 10
96.49233465986377
 20
22.20577865890711
 30
0.0
 11
98.33655600095681
 21
24.05000000000013
 31
0.0
  0
LINE
  5
249
330
6B
100
AcDbEntity
  8
_F-5_固定文字
  6
Continuous
 62
     7
100
AcDbLine
 10
94.96666666666618
 20
20.68011066570949
 30
0.0
 11
96.3536047340877
 21
22.067048733131
 31
0.0
  0
LINE
  5
24A
330
6B
100
AcDbEntity
  8
_F-5_固定文字
  6
Continuous
 62
     7
100
AcDbLine
 10
96.49233465986364
 20
22.06435730266855
 30
0.0
 11
98.47797735719552
 21
24.05000000000042
 31
0.0
  0
LINE
  5
24B
330
6B
100
AcDbEntity
  8
_F-5_固定文字
  6
Continuous
 62
     7
100
AcDbLine
 10
94.96666666666607
 20
20.53868930947097
 30
0.0
 11
96.35360473408743
 21
21.92562737689232
 31
0.0
  0
LINE
  5
24C
330
6B
100
AcDbEntity
  8
_F-5_固定文字
  6
Continuous
 62
     7
100
AcDbLine
 10
96.49233465986453
 20
21.9229359464328
 30
0.0
 11
98.61939871343196
 21
24.05000000000025
 31
0.0
  0
LINE
  5
24D
330
6B
100
AcDbEntity
  8
_F-5_固定文字
  6
Continuous
 62
     7
100
AcDbLine
 10
94.96666666666634
 20
20.39726795323463
 30
0.0
 11
96.35360473408788
 21
21.78420602065616
 31
0.0
  0
LINE
  5
24E
330
6B
100
AcDbEntity
  8
_F-5_固定文字
  6
Continuous
 62
     7
100
AcDbLine
 10
96.492334659864
 20
21.78151459019388
 30
0.0
 11
98.76082006967031
 21
24.0500000000002
 31
0.0
  0
LINE
  5
24F
330
6B
100
AcDbEntity
  8
_F-5_固定文字
  6
Continuous
 62
     7
100
AcDbLine
 10
94.96666666666628
 20
20.25584659699615
 30
0.0
 11
96.35360473408765
 21
21.64278466441752
 31
0.0
  0
LINE
  5
250
330
6B
100
AcDbEntity
  8
_F-5_固定文字
  6
Continuous
 62
     7
100
AcDbLine
 10
96.49233465986332
 20
21.6400932339566
 30
0.0
 11
98.90224142590726
 21
24.05000000000053
 31
0.0
  0
LINE
  5
251
330
6B
100
AcDbEntity
  8
_F-5_固定文字
  6
Continuous
 62
     7
100
AcDbLine
 10
94.96666666666648
 20
20.11442524075973
 30
0.0
 11
96.35360473408731
 21
21.50136330818056
 31
0.0
  0
LINE
  5
252
330
6B
100
AcDbEntity
  8
_F-5_固定文字
  6
Continuous
 62
     7
100
AcDbLine
 10
96.49233465986437
 20
21.49867187772104
 30
0.0
 11
99.04366278214357
 21
24.05000000000024
 31
0.0
  0
LINE
  5
253
330
6B
100
AcDbEntity
  8
_F-5_固定文字
  6
Continuous
 62
     7
100
AcDbLine
 10
94.96666666666618
 20
19.97300388452282
 30
0.0
 11
96.3536047340877
 21
21.35994195194434
 31
0.0
  0
LINE
  5
254
330
6B
100
AcDbEntity
  8
_F-5_固定文字
  6
Continuous
 62
     7
100
AcDbLine
 10
96.49233465986393
 20
21.35725052148214
 30
0.0
 11
99.18508413838205
 21
24.05000000000028
 31
0.0
  0
LINE
  5
255
330
6B
100
AcDbEntity
  8
_F-5_固定文字
  6
Continuous
 62
     7
100
AcDbLine
 10
94.96666666666618
 20
19.83158252828438
 30
0.0
 11
96.35360473408752
 21
21.21852059570574
 31
0.0
  0
LINE
  5
256
330
6B
100
AcDbEntity
  8
_F-5_固定文字
  6
Continuous
 62
     7
100
AcDbLine
 10
96.51973467511359
 20
21.24322918049521
 30
0.0
 11
99.13367637349804
 21
23.85717087887966
 31
0.0
  0
LINE
  5
257
330
6B
100
AcDbEntity
  8
_F-5_固定文字
  6
Continuous
 62
     7
100
AcDbLine
 10
94.96666666666634
 20
19.69016117204796
 30
0.0
 11
96.35360473408788
 21
21.07709923946949
 31
0.0
  0
LINE
  5
258
330
6B
100
AcDbEntity
  8
_F-5_固定文字
  6
Continuous
 62
     7
100
AcDbLine
 10
99.40494072048235
 20
23.98701386962736
 30
0.0
 11
99.46792685085508
 21
24.05000000000011
 31
0.0
  0
LINE
  5
259
330
6B
100
AcDbEntity
  8
_F-5_固定文字
  6
Continuous
 62
     7
100
AcDbLine
 10
96.58401897748687
 20
21.16609212663187
 30
0.0
 11
98.82257014715721
 21
23.40464329630223
 31
0.0
  0
LINE
  5
25A
330
6B
100
AcDbEntity
  8
_F-5_固定文字
  6
Continuous
 62
     7
100
AcDbLine
 10
95.02971846801008
 20
19.61179161715509
 30
0.0
 11
96.35360473408788
 21
20.93567788323289
 31
0.0
  0
LINE
  5
25B
330
6B
100
AcDbEntity
  8
_F-5_固定文字
  6
Continuous
 62
     7
100
AcDbLine
 10
99.40494072048185
 20
23.84559251338845
 30
0.0
 11
99.609348207094
 21
24.0500000000006
 31
0.0
  0
LINE
  5
25C
330
6B
100
AcDbEntity
  8
_F-5_固定文字
  6
Continuous
 62
     7
100
AcDbLine
 10
96.64830327986088
 20
21.08895507276748
 30
0.0
 11
98.51146392080849
 21
22.95211571371509
 31
0.0
  0
LINE
  5
25D
330
6B
100
AcDbEntity
  8
_F-5_固定文字
  6
Continuous
 62
     7
100
AcDbLine
 10
95.17113982424897
 20
19.61179161715554
 30
0.0
 11
96.35360473408738
 21
20.79425652699398
 31
0.0
  0
LINE
  5
25E
330
6B
100
AcDbEntity
  8
_F-5_固定文字
  6
Continuous
 62
     7
100
AcDbLine
 10
99.40494072048204
 20
23.70417115715203
 30
0.0
 11
99.75076956333042
 21
24.05000000000041
 31
0.0
  0
LINE
  5
25F
330
6B
100
AcDbEntity
  8
_F-5_固定文字
  6
Continuous
 62
     7
100
AcDbLine
 10
96.71258758223416
 20
21.01181801890414
 30
0.0
 11
98.20035769446546
 21
22.49958813113543
 31
0.0
  0
LINE
  5
260
330
6B
100
AcDbEntity
  8
_F-5_固定文字
  6
Continuous
 62
     7
100
AcDbLine
 10
95.31256118048537
 20
19.61179161715536
 30
0.0
 11
96.3536047340877
 21
20.65283517075767
 31
0.0
  0
LINE
  5
261
330
6B
100
AcDbEntity
  8
_F-5_固定文字
  6
Continuous
 62
     7
100
AcDbLine
 10
99.4049407204821
 20
23.56274980091364
 30
0.0
 11
99.89219091956881
 21
24.05000000000037
 31
0.0
  0
LINE
  5
262
330
6B
100
AcDbEntity
  8
_F-5_固定文字
  6
Continuous
 62
     7
100
AcDbLine
 10
96.7768718846082
 20
20.93468096503975
 30
0.0
 11
97.88925146812157
 21
22.04706054855313
 31
0.0
  0
LINE
  5
263
330
6B
100
AcDbEntity
  8
_F-5_固定文字
  6
Continuous
 62
     7
100
AcDbLine
 10
95.45398253672377
 20
19.61179161715532
 30
0.0
 11
96.35360473408759
 21
20.51141381451916
 31
0.0
  0
LINE
  5
264
330
6B
100
AcDbEntity
  8
_F-5_固定文字
  6
Continuous
 62
     7
100
AcDbLine
 10
99.40494072048172
 20
23.42132844467669
 30
0.0
 11
100.0336122758057
 21
24.05000000000069
 31
0.0
  0
LINE
  5
265
330
6B
100
AcDbEntity
  8
_F-5_固定文字
  6
Continuous
 62
     7
100
AcDbLine
 10
96.8411561869815
 20
20.85754391117645
 30
0.0
 11
97.77073480801041
 21
21.78712253220536
 31
0.0
  0
LINE
  5
266
330
6B
100
AcDbEntity
  8
_F-5_固定文字
  6
Continuous
 62
     7
100
AcDbLine
 10
95.59540389296042
 20
19.61179161715536
 30
0.0
 11
96.35360473408724
 21
20.3699924582822
 31
0.0
  0
LINE
  5
267
330
6B
100
AcDbEntity
  8
_F-5_固定文字
  6
Continuous
 62
     7
100
AcDbLine
 10
99.40494072048245
 20
23.27990708844081
 30
0.0
 11
100.1750336320419
 21
24.05000000000028
 31
0.0
  0
LINE
  5
268
330
6B
100
AcDbEntity
  8
_F-5_固定文字
  6
Continuous
 62
     7
100
AcDbLine
 10
96.90544048935473
 20
20.78040685731306
 30
0.0
 11
97.82835020422396
 21
21.70331657218232
 31
0.0
  0
LINE
  5
269
330
6B
100
AcDbEntity
  8
_F-5_固定文字
  6
Continuous
 62
     7
100
AcDbLine
 10
95.73682524919709
 20
19.61179161715545
 30
0.0
 11
96.35360473408749
 21
20.22857110204585
 31
0.0
  0
LINE
  5
26A
330
6B
100
AcDbEntity
  8
_F-5_固定文字
  6
Continuous
 62
     7
100
AcDbLine
 10
99.40494072048196
 20
23.13848573220189
 30
0.0
 11
100.3164549882805
 21
24.05000000000046
 31
0.0
  0
LINE
  5
26B
330
6B
100
AcDbEntity
  8
_F-5_固定文字
  6
Continuous
 62
     7
100
AcDbLine
 10
96.96972479172877
 20
20.70326980344869
 30
0.0
 11
97.88596560043808
 21
21.61951061215801
 31
0.0
  0
LINE
  5
26C
330
6B
100
AcDbEntity
  8
_F-5_固定文字
  6
Continuous
 62
     7
100
AcDbLine
 10
95.87824660543551
 20
19.61179161715541
 30
0.0
 11
96.35360473408749
 21
20.08714974580739
 31
0.0
  0
LINE
  5
26D
330
6B
100
AcDbEntity
  8
_F-5_固定文字
  6
Continuous
 62
     7
100
AcDbLine
 10
99.40494072048215
 20
22.99706437596547
 30
0.0
 11
100.4578763445169
 21
24.05000000000028
 31
0.0
  0
LINE
  5
26E
330
6B
100
AcDbEntity
  8
_F-5_固定文字
  6
Continuous
 62
     7
100
AcDbLine
 10
97.03400909410207
 20
20.6261327495854
 30
0.0
 11
97.94358099665146
 21
21.53570465213479
 31
0.0
  0
LINE
  5
26F
330
6B
100
AcDbEntity
  8
_F-5_固定文字
  6
Continuous
 62
     7
100
AcDbLine
 10
96.01966796167188
 20
19.61179161715519
 30
0.0
 11
96.3536047340877
 21
19.945728389571
 31
0.0
  0
LINE
  5
270
330
6B
100
AcDbEntity
  8
_F-5_固定文字
  6
Continuous
 62
     7
100
AcDbLine
 10
99.40494072048217
 20
22.85564301972707
 30
0.0
 11
100.5992977007553
 21
24.05000000000024
 31
0.0
  0
LINE
  5
271
330
6B
100
AcDbEntity
  8
_F-5_固定文字
  6
Continuous
 62
     7
100
AcDbLine
 10
97.09829339647615
 20
20.54899569572105
 30
0.0
 11
98.00119639286577
 21
21.45189869211065
 31
0.0
  0
LINE
  5
272
330
6B
100
AcDbEntity
  8
_F-5_固定文字
  6
Continuous
 62
     7
100
AcDbLine
 10
96.16108931791027
 20
19.61179161715516
 30
0.0
 11
96.3536047340877
 21
19.80430703333257
 31
0.0
  0
LINE
  5
273
330
6B
100
AcDbEntity
  8
_F-5_固定文字
  6
Continuous
 62
     7
100
AcDbLine
 10
99.4049407204818
 20
22.71422166349011
 30
0.0
 11
100.7407190569922
 21
24.05000000000057
 31
0.0
  0
LINE
  5
274
330
6B
100
AcDbEntity
  8
_F-5_固定文字
  6
Continuous
 62
     7
100
AcDbLine
 10
97.16257769884935
 20
20.47185864185767
 30
0.0
 11
98.05881178907913
 21
21.36809273208744
 31
0.0
  0
LINE
  5
275
330
6B
100
AcDbEntity
  8
_F-5_固定文字
  6
Continuous
 62
     7
100
AcDbLine
 10
96.30251067414718
 20
19.61179161715547
 30
0.0
 11
96.35360473408731
 21
19.66288567709561
 31
0.0
  0
LINE
  5
276
330
6B
100
AcDbEntity
  8
_F-5_固定文字
  6
Continuous
 62
     7
100
AcDbLine
 10
99.40494072048254
 20
22.57280030725423
 30
0.0
 11
100.791845952418
 21
23.95970553918968
 31
0.0
  0
LINE
  5
277
330
6B
100
AcDbEntity
  8
_F-5_固定文字
  6
Continuous
 62
     7
100
AcDbLine
 10
97.22686200122268
 20
20.39472158799436
 30
0.0
 11
98.1164271852926
 21
21.28428677206429
 31
0.0
  0
LINE
  5
278
330
6B
100
AcDbEntity
  8
_F-5_固定文字
  6
Continuous
 62
     7
100
AcDbLine
 10
99.40494072048204
 20
22.43137895101531
 30
0.0
 11
100.791845952418
 21
23.8182841829513
 31
0.0
  0
LINE
  5
279
330
6B
100
AcDbEntity
  8
_F-5_固定文字
  6
Continuous
 62
     7
100
AcDbLine
 10
97.29114630359672
 20
20.31758453412998
 30
0.0
 11
98.17404258150681
 21
21.20048081204007
 31
0.0
  0
LINE
  5
27A
330
6B
100
AcDbEntity
  8
_F-5_固定文字
  6
Continuous
 62
     7
100
AcDbLine
 10
101.0693714749415
 20
23.95438834923813
 30
0.0
 11
101.1631279207785
 21
24.0481447950752
 31
0.0
  0
LINE
  5
27B
330
6B
100
AcDbEntity
  8
_F-5_固定文字
  6
Continuous
 62
     7
100
AcDbLine
 10
99.4049407204822
 20
22.28995759477887
 30
0.0
 11
100.7918459524182
 21
23.67686282671487
 31
0.0
  0
LINE
  5
27C
330
6B
100
AcDbEntity
  8
_F-5_固定文字
  6
Continuous
 62
     7
100
AcDbLine
 10
97.35543060596995
 20
20.24044748026661
 30
0.0
 11
98.2316579777202
 21
21.11667485201685
 31
0.0
  0
LINE
  5
27D
330
6B
100
AcDbEntity
  8
_F-5_固定文字
  6
Continuous
 62
     7
100
AcDbLine
 10
101.0693714749415
 20
23.81296699299973
 30
0.0
 11
101.3045492770169
 21
24.04814479507518
 31
0.0
  0
LINE
  5
27E
330
6B
100
AcDbEntity
  8
_F-5_固定文字
  6
Continuous
 62
     7
100
AcDbLine
 10
99.40494072048227
 20
22.14853623854049
 30
0.0
 11
100.7918459524183
 21
23.53544147047649
 31
0.0
  0
LINE
  5
27F
330
6B
100
AcDbEntity
  8
_F-5_固定文字
  6
Continuous
 62
     7
100
AcDbLine
 10
97.41971490834403
 20
20.16331042640228
 30
0.0
 11
98.28927337393452
 21
21.03286889199274
 31
0.0
  0
LINE
  5
280
330
6B
100
AcDbEntity
  8
_F-5_固定文字
  6
Continuous
 62
     7
100
AcDbLine
 10
101.0693714749411
 20
23.67154563676279
 30
0.0
 11
101.4459706332538
 21
24.04814479507549
 31
0.0
  0
LINE
  5
281
330
6B
100
AcDbEntity
  8
_F-5_固定文字
  6
Continuous
 62
     7
100
AcDbLine
 10
99.40494072048194
 20
22.00711488230354
 30
0.0
 11
100.7918459524179
 21
23.39402011423953
 31
0.0
  0
LINE
  5
282
330
6B
100
AcDbEntity
  8
_F-5_固定文字
  6
Continuous
 62
     7
100
AcDbLine
 10
97.48399921071728
 20
20.08617337253891
 30
0.0
 11
98.34688877014787
 21
20.94906293196952
 31
0.0
  0
LINE
  5
283
330
6B
100
AcDbEntity
  8
_F-5_固定文字
  6
Continuous
 62
     7
100
AcDbLine
 10
101.0693714749413
 20
23.53012428052628
 30
0.0
 11
101.5873919894903
 21
24.04814479507529
 31
0.0
  0
LINE
  5
284
330
6B
100
AcDbEntity
  8
_F-5_固定文字
  6
Continuous
 62
     7
100
AcDbLine
 10
99.40494072048259
 20
21.86569352606765
 30
0.0
 11
100.7918459524181
 21
23.25259875800311
 31
0.0
  0
LINE
  5
285
330
6B
100
AcDbEntity
  8
_F-5_固定文字
  6
Continuous
 62
     7
100
AcDbLine
 10
97.54828351309056
 20
20.00903631867558
 30
0.0
 11
98.40450416636128
 21
20.86525697194629
 31
0.0
  0
LINE
  5
286
330
6B
100
AcDbEntity
  8
_F-5_固定文字
  6
Continuous
 62
     7
100
AcDbLine
 10
101.0693714749413
 20
23.38870292428795
 30
0.0
 11
101.7288133457286
 21
24.04814479507527
 31
0.0
  0
LINE
  5
287
330
6B
100
AcDbEntity
  8
_F-5_固定文字
  6
Continuous
 62
     7
100
AcDbLine
 10
99.40494072048212
 20
21.72427216982873
 30
0.0
 11
100.7918459524181
 21
23.11117740176472
 31
0.0
  0
LINE
  5
288
330
6B
100
AcDbEntity
  8
_F-5_固定文字
  6
Continuous
 62
     7
100
AcDbLine
 10
97.61256781546464
 20
19.93189926481124
 30
0.0
 11
98.46211956257556
 21
20.78145101192214
 31
0.0
  0
LINE
  5
289
330
6B
100
AcDbEntity
  8
_F-5_固定文字
  6
Continuous
 62
     7
100
AcDbLine
 10
101.0693714749414
 20
23.24728156805142
 30
0.0
 11
101.8702347019651
 21
24.04814479507506
 31
0.0
  0
LINE
  5
28A
330
6B
100
AcDbEntity
  8
_F-5_固定文字
  6
Continuous
 62
     7
100
AcDbLine
 10
99.4049407204818
 20
21.58285081359177
 30
0.0
 11
100.7918459524177
 21
22.96975604552776
 31
0.0
  0
LINE
  5
28B
330
6B
100
AcDbEntity
  8
_F-5_固定文字
  6
Continuous
 62
     7
100
AcDbLine
 10
97.67685211783787
 20
19.85476221094785
 30
0.0
 11
98.51973495878899
 21
20.69764505189894
 31
0.0
  0
LINE
  5
28C
330
6B
100
AcDbEntity
  8
_F-5_固定文字
  6
Continuous
 62
     7
100
AcDbLine
 10
101.0693714749416
 20
23.10586021181497
 30
0.0
 11
102.0116560582018
 21
24.04814479507523
 31
0.0
  0
LINE
  5
28D
330
6B
100
AcDbEntity
  8
_F-5_固定文字
  6
Continuous
 62
     7
100
AcDbLine
 10
99.40494072048251
 20
21.44142945735588
 30
0.0
 11
100.7918459524179
 21
22.82833468929133
 31
0.0
  0
LINE
  5
28E
330
6B
100
AcDbEntity
  8
_F-5_固定文字
  6
Continuous
 62
     7
100
AcDbLine
 10
97.74113642021113
 20
19.77762515708451
 30
0.0
 11
98.57735035500247
 21
20.61383909187586
 31
0.0
  0
LINE
  5
28F
330
6B
100
AcDbEntity
  8
_F-5_固定文字
  6
Continuous
 62
     7
100
AcDbLine
 10
101.0693714749412
 20
22.96443885557616
 30
0.0
 11
102.1530774144404
 21
24.04814479507535
 31
0.0
  0
LINE
  5
290
330
6B
100
AcDbEntity
  8
_F-5_固定文字
  6
Continuous
 62
     7
100
AcDbLine
 10
99.40494072048201
 20
21.30000810111696
 30
0.0
 11
100.791845952418
 21
22.68691333305294
 31
0.0
  0
LINE
  5
291
330
6B
100
AcDbEntity
  8
_F-5_固定文字
  6
Continuous
 62
     7
100
AcDbLine
 10
97.80542072258519
 20
19.70048810322017
 30
0.0
 11
98.63496575121665
 21
20.5300331318516
 31
0.0
  0
LINE
  5
292
330
6B
100
AcDbEntity
  8
_F-5_固定文字
  6
Continuous
 62
     7
100
AcDbLine
 10
101.0693714749412
 20
22.82301749933958
 30
0.0
 11
102.2944987706768
 21
24.04814479507516
 31
0.0
  0
LINE
  5
293
330
6B
100
AcDbEntity
  8
_F-5_固定文字
  6
Continuous
 62
     7
100
AcDbLine
 10
99.40494072048217
 20
21.15858674488052
 30
0.0
 11
100.7918459524181
 21
22.54549197681652
 31
0.0
  0
LINE
  5
294
330
6B
100
AcDbEntity
  8
_F-5_固定文字
  6
Continuous
 62
     7
100
AcDbLine
 10
97.86970502495849
 20
19.62335104935682
 30
0.0
 11
98.69258114743002
 21
20.44622717182837
 31
0.0
  0
LINE
  5
295
330
6B
100
AcDbEntity
  8
_F-5_固定文字
  6
Continuous
 62
     7
100
AcDbLine
 10
101.0693714749414
 20
22.68159614310133
 30
0.0
 11
102.4359201269151
 21
24.04814479507509
 31
0.0
  0
LINE
  5
296
330
6B
100
AcDbEntity
  8
_F-5_固定文字
  6
Continuous
 62
     7
100
AcDbLine
 10
99.40494072048224
 20
21.01716538864216
 30
0.0
 11
100.7918459524182
 21
22.40407062057813
 31
0.0
  0
LINE
  5
297
330
6B
100
AcDbEntity
  8
_F-5_固定文字
  6
Continuous
 62
     7
100
AcDbLine
 10
97.99956694899522
 20
19.61179161715513
 30
0.0
 11
98.75019654364431
 21
20.36242121180425
 31
0.0
  0
LINE
  5
298
330
6B
100
AcDbEntity
  8
_F-5_固定文字
  6
Continuous
 62
     7
100
AcDbLine
 10
101.069371474941
 20
22.54017478686437
 30
0.0
 11
102.4562767068768
 21
23.9270800188002
 31
0.0
  0
LINE
  5
299
330
6B
100
AcDbEntity
  8
_F-5_固定文字
  6
Continuous
 62
     7
100
AcDbLine
 10
99.40494072048188
 20
20.8757440324052
 30
0.0
 11
100.7918459524178
 21
22.26264926434118
 31
0.0
  0
LINE
  5
29A
330
6B
100
AcDbEntity
  8
_F-5_固定文字
  6
Continuous
 62
     7
100
AcDbLine
 10
98.14098830523214
 20
19.61179161715546
 30
0.0
 11
98.80781193985772
 21
20.27861525178102
 31
0.0
  0
LINE
  5
29B
330
6B
100
AcDbEntity
  8
_F-5_固定文字
  6
Continuous
 62
     7
100
AcDbLine
 10
101.069371474941
 20
22.39875343062773
 30
0.0
 11
102.456276706877
 21
23.78565866256377
 31
0.0
  0
LINE
  5
29C
330
6B
100
AcDbEntity
  8
_F-5_固定文字
  6
Continuous
 62
     7
100
AcDbLine
 10
99.40494072048256
 20
20.73432267616929
 30
0.0
 11
100.791845952418
 21
22.12122790810477
 31
0.0
  0
LINE
  5
29D
330
6B
100
AcDbEntity
  8
_F-5_固定文字
  6
Continuous
 62
     7
100
AcDbLine
 10
98.28240966146873
 20
19.61179161715543
 30
0.0
 11
98.86542733607114
 21
20.19480929175785
 31
0.0
  0
LINE
  5
29E
330
6B
100
AcDbEntity
  8
_F-5_固定文字
  6
Continuous
 62
     7
100
AcDbLine
 10
101.0693714749412
 20
22.25733207438953
 30
0.0
 11
102.4562767068771
 21
23.64423730632539
 31
0.0
  0
LINE
  5
29F
330
6B
100
AcDbEntity
  8
_F-5_固定文字
  6
Continuous
 62
     7
100
AcDbLine
 10
99.4049407204821
 20
20.59290131993037
 30
0.0
 11
100.7918459524181
 21
21.97980655186637
 31
0.0
  0
LINE
  5
2A0
330
6B
100
AcDbEntity
  8
_F-5_固定文字
  6
Continuous
 62
     7
100
AcDbLine
 10
98.42383101770693
 20
19.61179161715523
 30
0.0
 11
98.92304273228537
 21
20.11100333173367
 31
0.0
  0
LINE
  5
2A1
330
6B
100
AcDbEntity
  8
_F-5_固定文字
  6
Continuous
 62
     7
100
AcDbLine
 10
101.0693714749412
 20
22.11591071815288
 30
0.0
 11
102.4562767068772
 21
23.5028159500889
 31
0.0
  0
LINE
  5
2A2
330
6B
100
AcDbEntity
  8
_F-5_固定文字
  6
Continuous
 62
     7
100
AcDbLine
 10
99.40494072048227
 20
20.45147996369396
 30
0.0
 11
100.7918459524183
 21
21.83838519562995
 31
0.0
  0
LINE
  5
2A3
330
6B
100
AcDbEntity
  8
_F-5_固定文字
  6
Continuous
 62
     7
100
AcDbLine
 10
98.56525237394388
 20
19.61179161715556
 30
0.0
 11
98.98065812849877
 21
20.02719737171045
 31
0.0
  0
LINE
  5
2A4
330
6B
100
AcDbEntity
  8
_F-5_固定文字
  6
Continuous
 62
     7
100
AcDbLine
 10
101.0693714749414
 20
21.97448936191472
 30
0.0
 11
102.4562767068773
 21
23.36139459385056
 31
0.0
  0
LINE
  5
2A5
330
6B
100
AcDbEntity
  8
_F-5_固定文字
  6
Continuous
 62
     7
100
AcDbLine
 10
99.40494072048229
 20
20.31005860745556
 30
0.0
 11
100.7918459524183
 21
21.69696383939156
 31
0.0
  0
LINE
  5
2A6
330
6B
100
AcDbEntity
  8
_F-5_固定文字
  6
Continuous
 62
     7
100
AcDbLine
 10
98.70667373018171
 20
19.61179161715498
 30
0.0
 11
99.03827352471308
 21
19.94339141168633
 31
0.0
  0
LINE
  5
2A7
330
6B
100
AcDbEntity
  8
_F-5_固定文字
  6
Continuous
 62
     7
100
AcDbLine
 10
101.0693714749411
 20
21.83306800567775
 30
0.0
 11
102.4562767068769
 21
23.21997323761361
 31
0.0
  0
LINE
  5
2A8
330
6B
100
AcDbEntity
  8
_F-5_固定文字
  6
Continuous
 62
     7
100
AcDbLine
 10
99.40494072048196
 20
20.16863725121861
 30
0.0
 11
100.7918459524179
 21
21.55554248315461
 31
0.0
  0
LINE
  5
2A9
330
6B
100
AcDbEntity
  8
_F-5_固定文字
  6
Continuous
 62
     7
100
AcDbLine
 10
98.84809508641865
 20
19.61179161715532
 30
0.0
 11
99.09588892092644
 21
19.85958545166311
 31
0.0
  0
LINE
  5
2AA
330
6B
100
AcDbEntity
  8
_F-5_固定文字
  6
Continuous
 62
     7
100
AcDbLine
 10
101.069371474941
 20
21.69164664944104
 30
0.0
 11
102.456276706877
 21
23.07855188137707
 31
0.0
  0
LINE
  5
2AB
330
6B
100
AcDbEntity
  8
_F-5_固定文字
  6
Continuous
 62
     7
100
AcDbLine
 10
99.4049407204827
 20
20.02721589498272
 30
0.0
 11
100.7918459524181
 21
21.41412112691817
 31
0.0
  0
LINE
  5
2AC
330
6B
100
AcDbEntity
  8
_F-5_固定文字
  6
Continuous
 62
     7
100
AcDbLine
 10
98.98951644265551
 20
19.61179161715554
 30
0.0
 11
99.15350431713983
 21
19.77577949163989
 31
0.0
  0
LINE
  5
2AD
330
6B
100
AcDbEntity
  8
_F-5_固定文字
  6
Continuous
 62
     7
100
AcDbLine
 10
101.0693714749413
 20
21.55022529320293
 30
0.0
 11
102.4562767068772
 21
22.9371305251388
 31
0.0
  0
LINE
  5
2AE
330
6B
100
AcDbEntity
  8
_F-5_固定文字
  6
Continuous
 62
     7
100
AcDbLine
 10
99.40494072048217
 20
19.88579453874379
 30
0.0
 11
100.7918459524181
 21
21.2726997706798
 31
0.0
  0
LINE
  5
2AF
330
6B
100
AcDbEntity
  8
_F-5_固定文字
  6
Continuous
 62
     7
100
AcDbLine
 10
99.13093779889344
 20
19.61179161715507
 30
0.0
 11
99.21111971335413
 21
19.69197353161576
 31
0.0
  0
LINE
  5
2B0
330
6B
100
AcDbEntity
  8
_F-5_固定文字
  6
Continuous
 62
     7
100
AcDbLine
 10
101.0693714749411
 20
21.40880393696617
 30
0.0
 11
102.4562767068768
 21
22.79570916890186
 31
0.0
  0
LINE
  5
2B1
330
6B
100
AcDbEntity
  8
_F-5_固定文字
  6
Continuous
 62
     7
100
AcDbLine
 10
99.40494072048235
 20
19.74437318250736
 30
0.0
 11
100.7918459524181
 21
21.13127841444317
 31
0.0
  0
LINE
  5
2B2
330
6B
100
AcDbEntity
  8
_F-5_固定文字
  6
Continuous
 62
     7
100
AcDbLine
 10
101.0693714749415
 20
21.26738258072808
 30
0.0
 11
102.4562767068774
 21
22.65428781266398
 31
0.0
  0
LINE
  5
2B3
330
6B
100
AcDbEntity
  8
_F-5_固定文字
  6
Continuous
 62
     7
100
AcDbLine
 10
99.41565213403569
 20
19.61366323982225
 30
0.0
 11
100.7918459524183
 21
20.98985705820498
 31
0.0
  0
LINE
  5
2B4
330
6B
100
AcDbEntity
  8
_F-5_固定文字
  6
Continuous
 62
     7
100
AcDbLine
 10
101.0693714749411
 20
21.12596122449113
 30
0.0
 11
102.456276706877
 21
22.51286645642704
 31
0.0
  0
LINE
  5
2B5
330
6B
100
AcDbEntity
  8
_F-5_固定文字
  6
Continuous
 62
     7
100
AcDbLine
 10
99.55707349027264
 20
19.61366323982261
 30
0.0
 11
100.791845952418
 21
20.84843570196801
 31
0.0
  0
LINE
  5
2B6
330
6B
100
AcDbEntity
  8
_F-5_固定文字
  6
Continuous
 62
     7
100
AcDbLine
 10
101.0693714749409
 20
20.98453986825434
 30
0.0
 11
102.456276706877
 21
22.37144510019042
 31
0.0
  0
LINE
  5
2B7
330
6B
100
AcDbEntity
  8
_F-5_固定文字
  6
Continuous
 62
     7
100
AcDbLine
 10
99.69849484650906
 20
19.61366323982242
 30
0.0
 11
100.7918459524182
 21
20.70701434573161
 31
0.0
  0
LINE
  5
2B8
330
6B
100
AcDbEntity
  8
_F-5_固定文字
  6
Continuous
 62
     7
100
AcDbLine
 10
101.0693714749413
 20
20.8431185120163
 30
0.0
 11
102.4562767068773
 21
22.23002374395224
 31
0.0
  0
LINE
  5
2B9
330
6B
100
AcDbEntity
  8
_F-5_固定文字
  6
Continuous
 62
     7
100
AcDbLine
 10
99.83991620274744
 20
19.61366323982239
 30
0.0
 11
100.7918459524183
 21
20.56559298949323
 31
0.0
  0
LINE
  5
2BA
330
6B
100
AcDbEntity
  8
_F-5_固定文字
  6
Continuous
 62
     7
100
AcDbLine
 10
101.069371474941
 20
20.70169715577934
 30
0.0
 11
102.4562767068769
 21
22.08860238771526
 31
0.0
  0
LINE
  5
2BB
330
6B
100
AcDbEntity
  8
_F-5_固定文字
  6
Continuous
 62
     7
100
AcDbLine
 10
99.98133755898436
 20
19.61366323982273
 30
0.0
 11
100.7918459524179
 21
20.42417163325627
 31
0.0
  0
LINE
  5
2BC
330
6B
100
AcDbEntity
  8
_F-5_固定文字
  6
Continuous
 62
     7
100
AcDbLine
 10
101.0693714749413
 20
20.56027579954302
 30
0.0
 11
102.4562767068768
 21
21.94718103147859
 31
0.0
  0
LINE
  5
2BD
330
6B
100
AcDbEntity
  8
_F-5_固定文字
  6
Continuous
 62
     7
100
AcDbLine
 10
100.1227589152205
 20
19.61366323982227
 30
0.0
 11
100.7918459524181
 21
20.28275027701984
 31
0.0
  0
LINE
  5
2BE
330
6B
100
AcDbEntity
  8
_F-5_固定文字
  6
Continuous
 62
     7
100
AcDbLine
 10
101.0693714749412
 20
20.41885444330451
 30
0.0
 11
102.4562767068771
 21
21.80575967524044
 31
0.0
  0
LINE
  5
2BF
330
6B
100
AcDbEntity
  8
_F-5_固定文字
  6
Continuous
 62
     7
100
AcDbLine
 10
100.2641802714591
 20
19.61366323982248
 30
0.0
 11
100.7918459524181
 21
20.14132892078145
 31
0.0
  0
LINE
  5
2C0
330
6B
100
AcDbEntity
  8
_F-5_固定文字
  6
Continuous
 62
     7
100
AcDbLine
 10
101.0693714749409
 20
20.27743308706764
 30
0.0
 11
102.456276706877
 21
21.66433831900374
 31
0.0
  0
LINE
  5
2C1
330
6B
100
AcDbEntity
  8
_F-5_固定文字
  6
Continuous
 62
     7
100
AcDbLine
 10
100.4056016276955
 20
19.6136632398223
 30
0.0
 11
100.7918459524183
 21
19.99990756454502
 31
0.0
  0
LINE
  5
2C2
330
6B
100
AcDbEntity
  8
_F-5_固定文字
  6
Continuous
 62
     7
100
AcDbLine
 10
101.0693714749414
 20
20.13601173082968
 30
0.0
 11
102.4562767068773
 21
21.52291696276562
 31
0.0
  0
LINE
  5
2C3
330
6B
100
AcDbEntity
  8
_F-5_固定文字
  6
Continuous
 62
     7
100
AcDbLine
 10
100.5470229839339
 20
19.61366323982225
 30
0.0
 11
100.7918459524183
 21
19.85848620830663
 31
0.0
  0
LINE
  5
2C4
330
6B
100
AcDbEntity
  8
_F-5_固定文字
  6
Continuous
 62
     7
100
AcDbLine
 10
101.069371474941
 20
19.99459037459272
 30
0.0
 11
102.456276706877
 21
21.38149560652868
 31
0.0
  0
LINE
  5
2C5
330
6B
100
AcDbEntity
  8
_F-5_固定文字
  6
Continuous
 62
     7
100
AcDbLine
 10
100.6884443401709
 20
19.61366323982258
 30
0.0
 11
100.791845952418
 21
19.71706485206968
 31
0.0
  0
LINE
  5
2C6
330
6B
100
AcDbEntity
  8
_F-5_固定文字
  6
Continuous
 62
     7
100
AcDbLine
 10
101.0693714749407
 20
19.85316901835578
 30
0.0
 11
102.4562767068768
 21
21.24007425029192
 31
0.0
  0
LINE
  5
2C7
330
6B
100
AcDbEntity
  8
_F-5_固定文字
  6
Continuous
 62
     7
100
AcDbLine
 10
101.0693714749412
 20
19.7117476621179
 30
0.0
 11
102.4562767068772
 21
21.09865289405385
 31
0.0
  0
LINE
  5
2C8
330
6B
100
AcDbEntity
  8
_F-5_固定文字
  6
Continuous
 62
     7
100
AcDbLine
 10
101.1108367862153
 20
19.61179161715533
 30
0.0
 11
102.456276706877
 21
20.95723153781708
 31
0.0
  0
LINE
  5
2C9
330
6B
100
AcDbEntity
  8
_F-5_固定文字
  6
Continuous
 62
     7
100
AcDbLine
 10
101.2522581424531
 20
19.61179161715475
 30
0.0
 11
102.4562767068774
 21
20.81581018157905
 31
0.0
  0
LINE
  5
2CA
330
6B
100
AcDbEntity
  8
_F-5_固定文字
  6
Continuous
 62
     7
100
AcDbLine
 10
101.39367949869
 20
19.61179161715509
 30
0.0
 11
102.456276706877
 21
20.67438882534208
 31
0.0
  0
LINE
  5
2CB
330
6B
100
AcDbEntity
  8
_F-5_固定文字
  6
Continuous
 62
     7
100
AcDbLine
 10
101.535100854927
 20
19.61179161715541
 30
0.0
 11
102.4562767068768
 21
20.53296746910525
 31
0.0
  0
LINE
  5
2CC
330
6B
100
AcDbEntity
  8
_F-5_固定文字
  6
Continuous
 62
     7
100
AcDbLine
 10
101.6765222111648
 20
19.61179161715485
 30
0.0
 11
102.4562767068773
 21
20.39154611286727
 31
0.0
  0
LINE
  5
2CD
330
6B
100
AcDbEntity
  8
_F-5_固定文字
  6
Continuous
 62
     7
100
AcDbLine
 10
106.2009668027834
 20
23.9948148525368
 30
0.0
 11
106.254296745322
 21
24.04814479507548
 31
0.0
  0
LINE
  5
2CE
330
6B
100
AcDbEntity
  8
_F-5_固定文字
  6
Continuous
 62
     7
100
AcDbLine
 10
101.8179435674018
 20
19.61179161715516
 30
0.0
 11
102.4562767068769
 21
20.25012475663033
 31
0.0
  0
LINE
  5
2CF
330
6B
100
AcDbEntity
  8
_F-5_固定文字
  6
Continuous
 62
     7
100
AcDbLine
 10
106.2009668027836
 20
23.85339349630036
 30
0.0
 11
106.3957181015585
 21
24.04814479507527
 31
0.0
  0
LINE
  5
2D0
330
6B
100
AcDbEntity
  8
_F-5_固定文字
  6
Continuous
 62
     7
100
AcDbLine
 10
101.9593649236385
 20
19.61179161715532
 30
0.0
 11
102.4562767068766
 21
20.10870340039343
 31
0.0
  0
LINE
  5
2D1
330
6B
100
AcDbEntity
  8
_F-5_固定文字
  6
Continuous
 62
     7
100
AcDbLine
 10
106.2009668027831
 20
23.71197214006145
 30
0.0
 11
106.5371394577974
 21
24.04814479507575
 31
0.0
  0
LINE
  5
2D2
330
6B
100
AcDbEntity
  8
_F-5_固定文字
  6
Continuous
 62
     7
100
AcDbLine
 10
102.1007862798766
 20
19.61179161715493
 30
0.0
 11
102.4562767068771
 21
19.96728204415549
 31
0.0
  0
LINE
  5
2D3
330
6B
100
AcDbEntity
  8
_F-5_固定文字
  6
Continuous
 62
     7
100
AcDbLine
 10
106.2009668027837
 20
23.57055078382548
 30
0.0
 11
106.6785608140334
 21
24.04814479507519
 31
0.0
  0
LINE
  5
2D4
330
6B
100
AcDbEntity
  8
_F-5_固定文字
  6
Continuous
 62
     7
100
AcDbLine
 10
102.2422076361135
 20
19.61179161715528
 30
0.0
 11
102.4562767068768
 21
19.82586068791859
 31
0.0
  0
LINE
  5
2D5
330
6B
100
AcDbEntity
  8
_F-5_固定文字
  6
Continuous
 62
     7
100
AcDbLine
 10
106.2009668027833
 20
23.42912942758663
 30
0.0
 11
106.8199821702721
 21
24.04814479507549
 31
0.0
  0
LINE
  5
2D6
330
6B
100
AcDbEntity
  8
_F-5_固定文字
  6
Continuous
 62
     7
100
AcDbLine
 10
102.3836289923514
 20
19.61179161715469
 30
0.0
 11
102.4562767068773
 21
19.68443933168068
 31
0.0
  0
LINE
  5
2D7
330
6B
100
AcDbEntity
  8
_F-5_固定文字
  6
Continuous
 62
     7
100
AcDbLine
 10
106.2009668027829
 20
23.28770807134965
 30
0.0
 11
106.9614035265091
 21
24.04814479507581
 31
0.0
  0
LINE
  5
2D8
330
6B
100
AcDbEntity
  8
_F-5_固定文字
  6
Continuous
 62
     7
100
AcDbLine
 10
106.2009668027835
 20
23.14628671511365
 30
0.0
 11
107.1028248827453
 21
24.04814479507545
 31
0.0
  0
LINE
  5
2D9
330
6B
100
AcDbEntity
  8
_F-5_固定文字
  6
Continuous
 62
     7
100
AcDbLine
 10
106.2009668027831
 20
23.00486535887483
 30
0.0
 11
107.2442462389838
 21
24.04814479507557
 31
0.0
  0
LINE
  5
2DA
330
6B
100
AcDbEntity
  8
_F-5_固定文字
  6
Continuous
 62
     7
100
AcDbLine
 10
106.2009668027832
 20
22.86344400263827
 30
0.0
 11
107.3856675952203
 21
24.04814479507537
 31
0.0
  0
LINE
  5
2DB
330
6B
100
AcDbEntity
  8
_F-5_固定文字
  6
Continuous
 62
     7
100
AcDbLine
 10
106.2009668027833
 20
22.72202264640001
 30
0.0
 11
107.5270889514587
 21
24.04814479507532
 31
0.0
  0
LINE
  5
2DC
330
6B
100
AcDbEntity
  8
_F-5_固定文字
  6
Continuous
 62
     7
100
AcDbLine
 10
106.200966802783
 20
22.58060129016305
 30
0.0
 11
107.5879377056898
 21
23.96757219306985
 31
0.0
  0
LINE
  5
2DD
330
6B
100
AcDbEntity
  8
_F-5_固定文字
  6
Continuous
 62
     7
100
AcDbLine
 10
106.2009668027835
 20
22.43917993392697
 30
0.0
 11
107.5879377056899
 21
23.82615083683339
 31
0.0
  0
LINE
  5
2DE
330
6B
100
AcDbEntity
  8
_F-5_固定文字
  6
Continuous
 62
     7
100
AcDbLine
 10
106.2009668027832
 20
22.29775857768821
 30
0.0
 11
107.58793770569
 21
23.68472948059504
 31
0.0
  0
LINE
  5
2DF
330
6B
100
AcDbEntity
  8
_F-5_固定文字
  6
Continuous
 62
     7
100
AcDbLine
 10
108.0040289765615
 20
23.95939939522988
 30
0.0
 11
108.0946295813323
 21
24.05000000000071
 31
0.0
  0
LINE
  5
2E0
330
6B
100
AcDbEntity
  8
_F-5_固定文字
  6
Continuous
 62
     7
100
AcDbLine
 10
106.2009668027831
 20
22.15633722145155
 30
0.0
 11
107.5879377056901
 21
23.54330812435855
 31
0.0
  0
LINE
  5
2E1
330
6B
100
AcDbEntity
  8
_F-5_固定文字
  6
Continuous
 62
     7
100
AcDbLine
 10
108.004028976562
 20
23.81797803899202
 30
0.0
 11
108.2360509375701
 21
24.05000000000014
 31
0.0
  0
LINE
  5
2E2
330
6B
100
AcDbEntity
  8
_F-5_固定文字
  6
Continuous
 62
     7
100
AcDbLine
 10
106.2009668027834
 20
22.0149158652134
 30
0.0
 11
107.5879377056902
 21
23.40188676812021
 31
0.0
  0
LINE
  5
2E3
330
6B
100
AcDbEntity
  8
_F-5_固定文字
  6
Continuous
 62
     7
100
AcDbLine
 10
108.0040289765617
 20
23.67655668275508
 30
0.0
 11
108.3774722938071
 21
24.05000000000045
 31
0.0
  0
LINE
  5
2E4
330
6B
100
AcDbEntity
  8
_F-5_固定文字
  6
Continuous
 62
     7
100
AcDbLine
 10
106.200966802783
 20
21.87349450897642
 30
0.0
 11
107.5879377056898
 21
23.26046541188323
 31
0.0
  0
LINE
  5
2E5
330
6B
100
AcDbEntity
  8
_F-5_固定文字
  6
Continuous
 62
     7
100
AcDbLine
 10
108.0040289765623
 20
23.53513532651916
 30
0.0
 11
108.5188936500431
 21
24.04999999999994
 31
0.0
  0
LINE
  5
2E6
330
6B
100
AcDbEntity
  8
_F-5_固定文字
  6
Continuous
 62
     7
100
AcDbLine
 10
106.2009668027834
 20
21.73207315274023
 30
0.0
 11
107.5879377056899
 21
23.1190440556467
 31
0.0
  0
LINE
  5
2E7
330
6B
100
AcDbEntity
  8
_F-5_固定文字
  6
Continuous
 62
     7
100
AcDbLine
 10
108.0040289765619
 20
23.39371397028024
 30
0.0
 11
108.6603150062818
 21
24.0500000000002
 31
0.0
  0
LINE
  5
2E8
330
6B
100
AcDbEntity
  8
_F-5_固定文字
  6
Continuous
 62
     7
100
AcDbLine
 10
106.2009668027832
 20
21.59065179650158
 30
0.0
 11
107.5879377056901
 21
22.97762269940841
 31
0.0
  0
LINE
  5
2E9
330
6B
100
AcDbEntity
  8
_F-5_固定文字
  6
Continuous
 62
     7
100
AcDbLine
 10
108.0040289765616
 20
23.2522926140433
 30
0.0
 11
108.8017363625187
 21
24.05000000000053
 31
0.0
  0
LINE
  5
2EA
330
6B
100
AcDbEntity
  8
_F-5_固定文字
  6
Continuous
 62
     7
100
AcDbLine
 10
106.2009668027829
 20
21.44923044026463
 30
0.0
 11
107.5879377056897
 21
22.83620134317145
 31
0.0
  0
LINE
  5
2EB
330
6B
100
AcDbEntity
  8
_F-5_固定文字
  6
Continuous
 62
     7
100
AcDbLine
 10
108.0040289765623
 20
23.11087125780741
 30
0.0
 11
108.9431577187547
 21
24.04999999999981
 31
0.0
  0
LINE
  5
2EC
330
6B
100
AcDbEntity
  8
_F-5_固定文字
  6
Continuous
 62
     7
100
AcDbLine
 10
106.2009668027833
 20
21.30780908402839
 30
0.0
 11
107.5879377056897
 21
22.69477998693488
 31
0.0
  0
LINE
  5
2ED
330
6B
100
AcDbEntity
  8
_F-5_固定文字
  6
Continuous
 62
     7
100
AcDbLine
 10
108.0040289765618
 20
22.96944990156849
 30
0.0
 11
109.0845790749936
 21
24.0500000000003
 31
0.0
  0
LINE
  5
2EE
330
6B
100
AcDbEntity
  8
_F-5_固定文字
  6
Continuous
 62
     7
100
AcDbLine
 10
106.2009668027831
 20
21.16638772778983
 30
0.0
 11
107.5879377056899
 21
22.55335863069662
 31
0.0
  0
LINE
  5
2EF
330
6B
100
AcDbEntity
  8
_F-5_固定文字
  6
Continuous
 62
     7
100
AcDbLine
 10
108.0040289765625
 20
22.82802854533257
 30
0.0
 11
109.2260004312299
 21
24.05000000000004
 31
0.0
  0
LINE
  5
2F0
330
6B
100
AcDbEntity
  8
_F-5_固定文字
  6
Continuous
 62
     7
100
AcDbLine
 10
106.2009668027829
 20
21.02496637155301
 30
0.0
 11
107.5879377056898
 21
22.41193727446
 31
0.0
  0
LINE
  5
2F1
330
6B
100
AcDbEntity
  8
_F-5_固定文字
  6
Continuous
 62
     7
100
AcDbLine
 10
108.004028976562
 20
22.68660718909367
 30
0.0
 11
109.3674217874683
 21
24.05000000000006
 31
0.0
  0
LINE
  5
2F2
330
6B
100
AcDbEntity
  8
_F-5_固定文字
  6
Continuous
 62
     7
100
AcDbLine
 10
106.2009668027833
 20
20.88354501531497
 30
0.0
 11
107.5879377056901
 21
22.27051591822179
 31
0.0
  0
LINE
  5
2F3
330
6B
100
AcDbEntity
  8
_F-5_固定文字
  6
Continuous
 62
     7
100
AcDbLine
 10
108.0040289765616
 20
22.54518583285672
 30
0.0
 11
109.3909342084975
 21
23.93209106479263
 31
0.0
  0
LINE
  5
2F4
330
6B
100
AcDbEntity
  8
_F-5_固定文字
  6
Continuous
 62
     7
100
AcDbLine
 10
106.2009668027829
 20
20.74212365907802
 30
0.0
 11
107.5879377056897
 21
22.12909456198483
 31
0.0
  0
LINE
  5
2F5
330
6B
100
AcDbEntity
  8
_F-5_固定文字
  6
Continuous
 62
     7
100
AcDbLine
 10
108.0040289765623
 20
22.40376447662082
 30
0.0
 11
109.3909342084977
 21
23.79066970855623
 31
0.0
  0
LINE
  5
2F6
330
6B
100
AcDbEntity
  8
_F-5_固定文字
  6
Continuous
 62
     7
100
AcDbLine
 10
106.2009668027832
 20
20.6007023028417
 30
0.0
 11
107.5879377056897
 21
21.98767320574815
 31
0.0
  0
LINE
  5
2F7
330
6B
100
AcDbEntity
  8
_F-5_固定文字
  6
Continuous
 62
     7
100
AcDbLine
 10
108.0040289765618
 20
22.2623431203819
 30
0.0
 11
109.3909342084977
 21
23.64924835231783
 31
0.0
  0
LINE
  5
2F8
330
6B
100
AcDbEntity
  8
_F-5_固定文字
  6
Continuous
 62
     7
100
AcDbLine
 10
106.2009668027831
 20
20.45928094660319
 30
0.0
 11
107.5879377056899
 21
21.84625184951001
 31
0.0
  0
LINE
  5
2F9
330
6B
100
AcDbEntity
  8
_F-5_固定文字
  6
Continuous
 62
     7
100
AcDbLine
 10
108.004028976562
 20
22.12092176414548
 30
0.0
 11
109.3909342084979
 21
23.5078269960814
 31
0.0
  0
LINE
  5
2FA
330
6B
100
AcDbEntity
  8
_F-5_固定文字
  6
Continuous
 62
     7
100
AcDbLine
 10
106.2009668027828
 20
20.3178595903663
 30
0.0
 11
107.5879377056898
 21
21.70483049327328
 31
0.0
  0
LINE
  5
2FB
330
6B
100
AcDbEntity
  8
_F-5_固定文字
  6
Continuous
 62
     7
100
AcDbLine
 10
108.0040289765621
 20
21.97950040790708
 30
0.0
 11
109.390934208498
 21
23.36640563984303
 31
0.0
  0
LINE
  5
2FC
330
6B
100
AcDbEntity
  8
_F-5_固定文字
  6
Continuous
 62
     7
100
AcDbLine
 10
106.2009668027833
 20
20.17643823412837
 30
0.0
 11
107.5879377056901
 21
21.56340913703516
 31
0.0
  0
LINE
  5
2FD
330
6B
100
AcDbEntity
  8
_F-5_固定文字
  6
Continuous
 62
     7
100
AcDbLine
 10
108.0040289765617
 20
21.83807905167013
 30
0.0
 11
109.3909342084976
 21
23.22498428360606
 31
0.0
  0
LINE
  5
2FE
330
6B
100
AcDbEntity
  8
_F-5_固定文字
  6
Continuous
 62
     7
100
AcDbLine
 10
106.200966802783
 20
20.03501687789141
 30
0.0
 11
107.5879377056898
 21
21.42198778079821
 31
0.0
  0
LINE
  5
2FF
330
6B
100
AcDbEntity
  8
_F-5_固定文字
  6
Continuous
 62
     7
100
AcDbLine
 10
108.0040289765624
 20
21.69665769543424
 30
0.0
 11
109.3909342084978
 21
23.08356292736964
 31
0.0
  0
LINE
  5
300
330
6B
100
AcDbEntity
  8
_F-5_固定文字
  6
Continuous
 62
     7
100
AcDbLine
 10
106.2009668027832
 20
19.893595521655
 30
0.0
 11
107.5879377056896
 21
21.28056642456146
 31
0.0
  0
LINE
  5
301
330
6B
100
AcDbEntity
  8
_F-5_固定文字
  6
Continuous
 62
     7
100
AcDbLine
 10
108.0040289765619
 20
21.55523633919533
 30
0.0
 11
109.3909342084979
 21
22.94214157113125
 31
0.0
  0
LINE
  5
302
330
6B
100
AcDbEntity
  8
_F-5_固定文字
  6
Continuous
 62
     7
100
AcDbLine
 10
106.2009668027832
 20
19.75217416541656
 30
0.0
 11
107.58793770569
 21
21.13914506832339
 31
0.0
  0
LINE
  5
303
330
6B
100
AcDbEntity
  8
_F-5_固定文字
  6
Continuous
 62
     7
100
AcDbLine
 10
108.0040289765616
 20
21.4138149829584
 30
0.0
 11
109.3909342084975
 21
22.80072021489429
 31
0.0
  0
LINE
  5
304
330
6B
100
AcDbEntity
  8
_F-5_固定文字
  6
Continuous
 62
     7
100
AcDbLine
 10
106.2020056107588
 20
19.61179161715558
 30
0.0
 11
107.5879377056898
 21
20.99772371208659
 31
0.0
  0
LINE
  5
305
330
6B
100
AcDbEntity
  8
_F-5_固定文字
  6
Continuous
 62
     7
100
AcDbLine
 10
108.0040289765621
 20
21.27239362672052
 30
0.0
 11
109.3909342084981
 21
22.65929885865643
 31
0.0
  0
LINE
  5
306
330
6B
100
AcDbEntity
  8
_F-5_固定文字
  6
Continuous
 62
     7
100
AcDbLine
 10
106.3434269669966
 20
19.61179161715499
 30
0.0
 11
107.5879377056902
 21
20.85630235584854
 31
0.0
  0
LINE
  5
307
330
6B
100
AcDbEntity
  8
_F-5_固定文字
  6
Continuous
 62
     7
100
AcDbLine
 10
108.0040289765618
 20
21.13097227048356
 30
0.0
 11
109.3909342084977
 21
22.51787750241949
 31
0.0
  0
LINE
  5
308
330
6B
100
AcDbEntity
  8
_F-5_固定文字
  6
Continuous
 62
     7
100
AcDbLine
 10
106.4848483232336
 20
19.61179161715533
 30
0.0
 11
107.5879377056898
 21
20.71488099961159
 31
0.0
  0
LINE
  5
309
330
6B
100
AcDbEntity
  8
_F-5_固定文字
  6
Continuous
 62
     7
100
AcDbLine
 10
108.0040289765625
 20
20.98955091424766
 30
0.0
 11
109.3909342084979
 21
22.37645614618306
 31
0.0
  0
LINE
  5
30A
330
6B
100
AcDbEntity
  8
_F-5_固定文字
  6
Continuous
 62
     7
100
AcDbLine
 10
106.6262696794701
 20
19.61179161715529
 30
0.0
 11
107.5879377056896
 21
20.57345964337476
 31
0.0
  0
LINE
  5
30B
330
6B
100
AcDbEntity
  8
_F-5_固定文字
  6
Continuous
 62
     7
100
AcDbLine
 10
108.004028976562
 20
20.84812955800875
 30
0.0
 11
109.3909342084979
 21
22.23503478994466
 31
0.0
  0
LINE
  5
30C
330
6B
100
AcDbEntity
  8
_F-5_固定文字
  6
Continuous
 62
     7
100
AcDbLine
 10
106.7676910357083
 20
19.61179161715508
 30
0.0
 11
107.58793770569
 21
20.43203828713677
 31
0.0
  0
LINE
  5
30D
330
6B
100
AcDbEntity
  8
_F-5_固定文字
  6
Continuous
 62
     7
100
AcDbLine
 10
108.0040289765617
 20
20.70670820177179
 30
0.0
 11
109.3909342084976
 21
22.09361343370772
 31
0.0
  0
LINE
  5
30E
330
6B
100
AcDbEntity
  8
_F-5_固定文字
  6
Continuous
 62
     7
100
AcDbLine
 10
106.9091123919453
 20
19.61179161715541
 30
0.0
 11
107.5879377056897
 21
20.29061693089983
 31
0.0
  0
LINE
  5
30F
330
6B
100
AcDbEntity
  8
_F-5_固定文字
  6
Continuous
 62
     7
100
AcDbLine
 10
108.0040289765624
 20
20.5652868455359
 30
0.0
 11
109.3909342084983
 21
21.95219207747184
 31
0.0
  0
LINE
  5
310
330
6B
100
AcDbEntity
  8
_F-5_固定文字
  6
Continuous
 62
     7
100
AcDbLine
 10
107.050533748182
 20
19.61179161715553
 30
0.0
 11
107.5879377056894
 21
20.14919557466292
 31
0.0
  0
LINE
  5
311
330
6B
100
AcDbEntity
  8
_F-5_固定文字
  6
Continuous
 62
     7
100
AcDbLine
 10
108.0040289765619
 20
20.42386548929699
 30
0.0
 11
109.3909342084978
 21
21.81077072123291
 31
0.0
  0
LINE
  5
312
330
6B
100
AcDbEntity
  8
_F-5_固定文字
  6
Continuous
 62
     7
100
AcDbLine
 10
107.1919551044201
 20
19.61179161715516
 30
0.0
 11
107.5879377056899
 21
20.00777421842497
 31
0.0
  0
LINE
  5
313
330
6B
100
AcDbEntity
  8
_F-5_固定文字
  6
Continuous
 62
     7
100
AcDbLine
 10
108.0040289765621
 20
20.28244413306057
 30
0.0
 11
109.390934208498
 21
21.66934936499648
 31
0.0
  0
LINE
  5
314
330
6B
100
AcDbEntity
  8
_F-5_固定文字
  6
Continuous
 62
     7
100
AcDbLine
 10
107.333376460657
 20
19.6117916171555
 30
0.0
 11
107.5879377056895
 21
19.86635286218804
 31
0.0
  0
LINE
  5
315
330
6B
100
AcDbEntity
  8
_F-5_固定文字
  6
Continuous
 62
     7
100
AcDbLine
 10
108.0040289765621
 20
20.14102277682217
 30
0.0
 11
109.390934208498
 21
21.52792800875809
 31
0.0
  0
LINE
  5
316
330
6B
100
AcDbEntity
  8
_F-5_固定文字
  6
Continuous
 62
     7
100
AcDbLine
 10
107.4747978168948
 20
19.61179161715491
 30
0.0
 11
107.5879377056901
 21
19.72493150595013
 31
0.0
  0
LINE
  5
317
330
6B
100
AcDbEntity
  8
_F-5_固定文字
  6
Continuous
 62
     7
100
AcDbLine
 10
108.0040289765618
 20
19.99960142058524
 30
0.0
 11
109.3909342084977
 21
21.38650665252114
 31
0.0
  0
LINE
  5
318
330
6B
100
AcDbEntity
  8
_F-5_固定文字
  6
Continuous
 62
     7
100
AcDbLine
 10
108.0040289765625
 20
19.85818006434931
 30
0.0
 11
109.3909342084979
 21
21.2450852962847
 31
0.0
  0
LINE
  5
319
330
6B
100
AcDbEntity
  8
_F-5_固定文字
  6
Continuous
 62
     7
100
AcDbLine
 10
108.004028976562
 20
19.71675870811041
 30
0.0
 11
109.3909342084979
 21
21.10366394004633
 31
0.0
  0
LINE
  5
31A
330
6B
100
AcDbEntity
  8
_F-5_固定文字
  6
Continuous
 62
     7
100
AcDbLine
 10
108.0423548645109
 20
19.61366323982273
 30
0.0
 11
109.3909342084975
 21
20.96224258380937
 31
0.0
  0
LINE
  5
31B
330
6B
100
AcDbEntity
  8
_F-5_固定文字
  6
Continuous
 62
     7
100
AcDbLine
 10
108.1837762207487
 20
19.61366323982214
 30
0.0
 11
109.3909342084981
 21
20.8208212275715
 31
0.0
  0
LINE
  5
31C
330
6B
100
AcDbEntity
  8
_F-5_固定文字
  6
Continuous
 62
     7
100
AcDbLine
 10
108.3251975769857
 20
19.61366323982248
 30
0.0
 11
109.3909342084977
 21
20.67939987133456
 31
0.0
  0
LINE
  5
31D
330
6B
100
AcDbEntity
  8
_F-5_固定文字
  6
Continuous
 62
     7
100
AcDbLine
 10
108.4666189332217
 20
19.61366323982192
 30
0.0
 11
109.390934208498
 21
20.53797851509814
 31
0.0
  0
LINE
  5
31E
330
6B
100
AcDbEntity
  8
_F-5_固定文字
  6
Continuous
 62
     7
100
AcDbLine
 10
108.6080402894605
 20
19.61366323982223
 30
0.0
 11
109.390934208498
 21
20.39655715885975
 31
0.0
  0
LINE
  5
31F
330
6B
100
AcDbEntity
  8
_F-5_固定文字
  6
Continuous
 62
     7
100
AcDbLine
 10
108.7494616456974
 20
19.61366323982257
 30
0.0
 11
109.3909342084977
 21
20.25513580262281
 31
0.0
  0
LINE
  5
320
330
6B
100
AcDbEntity
  8
_F-5_固定文字
  6
Continuous
 62
     7
100
AcDbLine
 10
108.8908830019333
 20
19.61366323982185
 30
0.0
 11
109.3909342084983
 21
20.11371444638689
 31
0.0
  0
LINE
  5
321
330
6B
100
AcDbEntity
  8
_F-5_固定文字
  6
Continuous
 62
     7
100
AcDbLine
 10
109.0323043581722
 20
19.61366323982232
 30
0.0
 11
109.3909342084979
 21
19.97229309014798
 31
0.0
  0
LINE
  5
322
330
6B
100
AcDbEntity
  8
_F-5_固定文字
  6
Continuous
 62
     7
100
AcDbLine
 10
109.1737257144085
 20
19.61366323982203
 30
0.0
 11
109.3909342084981
 21
19.83087173391156
 31
0.0
  0
LINE
  5
323
330
6B
100
AcDbEntity
  8
_F-5_固定文字
  6
Continuous
 62
     7
100
AcDbLine
 10
109.315147070647
 20
19.61366323982206
 30
0.0
 11
109.3909342084981
 21
19.68945037767317
 31
0.0
  0
LINE
  5
324
330
6B
100
AcDbEntity
  8
_F-5_固定文字
  6
Continuous
 62
     7
100
AcDbLine
 10
104.6752988095861
 20
19.61195579458182
 30
0.0
 11
105.7849412028822
 21
19.61179161715491
 31
0.0
  0
LINE
  5
325
330
6B
100
AcDbEntity
  8
_F-5_固定文字
  6
Continuous
 62
     7
100
AcDbLine
 10
105.7849412028822
 20
19.61179161715491
 30
0.0
 11
105.78139497046
 21
20.72483248318897
 31
0.0
  0
LINE
  5
326
330
6B
100
AcDbEntity
  8
_F-5_固定文字
  6
Continuous
 62
     7
100
AcDbLine
 10
99.40494072048249
 20
19.61366323982217
 30
0.0
 11
100.7918459524183
 21
19.61366323982217
 31
0.0
  0
LINE
  5
327
330
6B
100
AcDbEntity
  8
_F-5_固定文字
  6
Continuous
 62
     7
100
AcDbLine
 10
100.7918459524183
 20
24.04999999999999
 30
0.0
 11
100.7918459524183
 21
19.61366323982217
 31
0.0
  0
LINE
  5
328
330
6B
100
AcDbEntity
  8
_F-5_固定文字
  6
Continuous
 62
     7
100
AcDbLine
 10
99.40494072048249
 20
24.04999999999999
 30
0.0
 11
100.7918459524183
 21
24.04999999999999
 31
0.0
  0
LINE
  5
329
330
6B
100
AcDbEntity
  8
_F-5_固定文字
  6
Continuous
 62
     7
100
AcDbLine
 10
99.40494072048249
 20
24.04999999999999
 30
0.0
 11
99.40494072048249
 21
19.61366323982217
 31
0.0
  0
LINE
  5
32A
330
6B
100
AcDbEntity
  8
_F-5_固定文字
  6
Continuous
 62
     7
100
AcDbLine
 10
106.2009668027835
 20
24.04814479507539
 30
0.0
 11
107.5879377056901
 21
24.04814479507539
 31
0.0
  0
LINE
  5
32B
330
6B
100
AcDbEntity
  8
_F-5_固定文字
  6
Continuous
 62
     7
100
AcDbLine
 10
106.2009668027835
 20
24.04814479507539
 30
0.0
 11
106.2009668027835
 21
19.61179161715491
 31
0.0
  0
LINE
  5
32C
330
6B
100
AcDbEntity
  8
_F-5_固定文字
  6
Continuous
 62
     7
100
AcDbLine
 10
106.2009668027835
 20
19.61179161715491
 30
0.0
 11
107.5879377056901
 21
19.61179161715491
 31
0.0
  0
LINE
  5
32D
330
6B
100
AcDbEntity
  8
_F-5_固定文字
  6
Continuous
 62
     7
100
AcDbLine
 10
107.5879377056901
 20
24.04814479507539
 30
0.0
 11
107.5879377056901
 21
19.61179161715491
 31
0.0
  0
LINE
  5
32E
330
6B
100
AcDbEntity
  8
_F-5_固定文字
  6
Continuous
 62
     7
100
AcDbLine
 10
108.0040289765622
 20
19.61366323982217
 30
0.0
 11
109.3909342084979
 21
19.61366323982217
 31
0.0
  0
LINE
  5
32F
330
6B
100
AcDbEntity
  8
_F-5_固定文字
  6
Continuous
 62
     7
100
AcDbLine
 10
109.3909342084979
 20
24.04999999999999
 30
0.0
 11
109.3909342084979
 21
19.61366323982217
 31
0.0
  0
LINE
  5
330
330
6B
100
AcDbEntity
  8
_F-5_固定文字
  6
Continuous
 62
     7
100
AcDbLine
 10
108.0040289765622
 20
24.04999999999999
 30
0.0
 11
109.3909342084979
 21
24.04999999999999
 31
0.0
  0
LINE
  5
331
330
6B
100
AcDbEntity
  8
_F-5_固定文字
  6
Continuous
 62
     7
100
AcDbLine
 10
108.0040289765622
 20
24.04999999999999
 30
0.0
 11
108.0040289765622
 21
19.61366323982217
 31
0.0
  0
LINE
  5
332
330
6B
100
AcDbEntity
  8
_F-5_固定文字
  6
Continuous
 62
     7
100
AcDbLine
 10
104.6718182481347
 20
20.72309220246317
 30
0.0
 11
104.6752988095861
 21
19.61195579458182
 31
0.0
  0
ARC
  5
333
330
6B
100
AcDbEntity
  8
_F-5_固定文字
  6
Continuous
 62
     7
100
AcDbCircle
 10
104.6718182481347
 20
20.72135192173751
 30
0.0
 40
1.10955491751079
100
AcDbArc
 50
0.1796875
 51
88.87780761718749
  0
ARC
  5
334
330
6B
100
AcDbEntity
  8
_F-5_固定文字
  6
Continuous
 62
     7
100
AcDbCircle
 10
104.117029886972
 20
20.72135192173751
 30
0.0
 40
0.5547774587553955
100
AcDbArc
 50
0.1796875
 51
90.00000000000003
  0
LINE
  5
335
330
6B
100
AcDbEntity
  8
_F-5_固定文字
  6
Continuous
 62
     7
100
AcDbLine
 10
102.5949081261969
 20
21.27610744741474
 30
0.0
 11
104.117029886972
 21
21.27610744741474
 31
0.0
  0
LINE
  5
336
330
6B
100
AcDbEntity
  8
_F-5_固定文字
  6
Continuous
 62
     7
100
AcDbLine
 10
102.5949081261969
 20
22.38568416974008
 30
0.0
 11
102.5949081261969
 21
21.27610744741474
 31
0.0
  0
ARC
  5
337
330
6B
100
AcDbEntity
  8
_F-5_固定文字
  6
Continuous
 62
     7
100
AcDbCircle
 10
104.6752988095861
 20
22.66306193257873
 30
0.0
 40
0.2773887293776977
100
AcDbArc
 50
270.0
 51
90.0
  0
LINE
  5
338
330
6B
100
AcDbEntity
  8
_F-5_固定文字
  6
Continuous
 62
     7
100
AcDbLine
 10
102.5949081261969
 20
22.38568416974008
 30
0.0
 11
104.6752988095861
 21
22.38568416974008
 31
0.0
  0
LINE
  5
339
330
6B
100
AcDbEntity
  8
_F-5_固定文字
  6
Continuous
 62
     7
100
AcDbLine
 10
104.6752988095861
 20
22.94045611316001
 30
0.0
 11
102.5949081261969
 21
22.94045611316001
 31
0.0
  0
ARC
  5
33A
330
6B
100
AcDbEntity
  8
_F-5_固定文字
  6
Continuous
 62
     7
100
AcDbCircle
 10
104.9526929901674
 20
22.94045611316001
 30
0.0
 40
1.10955491751079
100
AcDbArc
 50
256.8561248779297
 51
90.0
  0
LINE
  5
33B
330
6B
100
AcDbEntity
  8
_F-5_固定文字
  6
Continuous
 62
     7
100
AcDbLine
 10
102.5949081261969
 20
24.04999999999999
 30
0.0
 11
104.9526929901674
 21
24.04999999999999
 31
0.0
  0
LINE
  5
33C
330
6B
100
AcDbEntity
  8
_F-5_固定文字
  6
Continuous
 62
     7
100
AcDbLine
 10
102.5949081261969
 20
24.04999999999999
 30
0.0
 11
102.5949081261969
 21
22.94045611316001
 31
0.0
  0
LINE
  5
33D
330
6B
100
AcDbEntity
  8
_F-5_固定文字
  6
Continuous
 62
     7
100
AcDbLine
 10
101.0693714749413
 20
24.04814479507539
 30
0.0
 11
102.4562767068771
 21
24.04814479507539
 31
0.0
  0
LINE
  5
33E
330
6B
100
AcDbEntity
  8
_F-5_固定文字
  6
Continuous
 62
     7
100
AcDbLine
 10
102.4562767068771
 20
24.04999999999999
 30
0.0
 11
102.4562767068771
 21
19.61179161715491
 31
0.0
  0
LINE
  5
33F
330
6B
100
AcDbEntity
  8
_F-5_固定文字
  6
Continuous
 62
     7
100
AcDbLine
 10
101.0693714749413
 20
19.61179161715491
 30
0.0
 11
102.4562767068771
 21
19.61179161715491
 31
0.0
  0
LINE
  5
340
330
6B
100
AcDbEntity
  8
_F-5_固定文字
  6
Continuous
 62
     7
100
AcDbLine
 10
97.74064130796531
 20
21.83089580857743
 30
0.0
 11
99.26624363019181
 21
19.61179161715491
 31
0.0
  0
LINE
  5
341
330
6B
100
AcDbEntity
  8
_F-5_固定文字
  6
Continuous
 62
     7
100
AcDbLine
 10
99.26624363019181
 20
24.04999999999999
 30
0.0
 11
97.74064130796531
 21
21.83089580857743
 31
0.0
  0
LINE
  5
342
330
6B
100
AcDbEntity
  8
_F-5_固定文字
  6
Continuous
 62
     7
100
AcDbLine
 10
97.87933839825596
 20
19.61179161715491
 30
0.0
 11
99.26624363019181
 21
19.61179161715491
 31
0.0
  0
LINE
  5
343
330
6B
100
AcDbEntity
  8
_F-5_固定文字
  6
Continuous
 62
     7
100
AcDbLine
 10
96.49233465986393
 20
21.27610744741474
 30
0.0
 11
97.87933839825596
 21
19.61179161715491
 31
0.0
  0
LINE
  5
344
330
6B
100
AcDbEntity
  8
_F-5_固定文字
  6
Continuous
 62
     7
100
AcDbLine
 10
96.49233465986393
 20
22.38568416974008
 30
0.0
 11
97.87933839825596
 21
24.04999999999999
 31
0.0
  0
LINE
  5
345
330
6B
100
AcDbEntity
  8
_F-5_固定文字
  6
Continuous
 62
     7
100
AcDbLine
 10
97.87933839825596
 20
24.04999999999999
 30
0.0
 11
99.26624363019181
 21
24.04999999999999
 31
0.0
  0
LINE
  5
346
330
6B
100
AcDbEntity
  8
_F-5_固定文字
  6
Continuous
 62
     7
100
AcDbLine
 10
96.49233465986393
 20
21.27610744741474
 30
0.0
 11
96.49233465986393
 21
22.38568416974008
 31
0.0
  0
LINE
  5
347
330
6B
100
AcDbEntity
  8
_F-5_固定文字
  6
Continuous
 62
     7
100
AcDbLine
 10
94.96666666666667
 20
24.04999999999999
 30
0.0
 11
94.96666666666667
 21
19.61179161715491
 31
0.0
  0
LINE
  5
348
330
6B
100
AcDbEntity
  8
_F-5_固定文字
  6
Continuous
 62
     7
100
AcDbLine
 10
94.96666666666667
 20
19.61179161715491
 30
0.0
 11
96.35360473408788
 21
19.61179161715491
 31
0.0
  0
LINE
  5
349
330
6B
100
AcDbEntity
  8
_F-5_固定文字
  6
Continuous
 62
     7
100
AcDbLine
 10
96.35360473408788
 20
24.04999999999999
 30
0.0
 11
96.35360473408788
 21
19.61179161715491
 31
0.0
  0
LINE
  5
34A
330
6B
100
AcDbEntity
  8
_F-5_固定文字
  6
Continuous
 62
     7
100
AcDbLine
 10
94.96666666666667
 20
24.04999999999999
 30
0.0
 11
96.35360473408788
 21
24.04999999999999
 31
0.0
  0
LINE
  5
34B
330
6B
100
AcDbEntity
  8
_F-5_固定文字
  6
Continuous
 62
     7
100
AcDbLine
 10
101.0693714749413
 20
24.04814479507539
 30
0.0
 11
101.0693714749413
 21
19.61179161715491
 31
0.0
  0
TEXT
  5
34C
330
6B
100
AcDbEntity
  8
_F-5_固定文字
 62
     7
100
AcDbText
 10
125.42925
 20
15.65646848226693
 30
0.0
 40
4.0
  1
桐井製作所
100
AcDbText
  0
TEXT
  5
34D
330
6B
100
AcDbEntity
  8
_F-5_固定文字
 62
     4
100
AcDbText
 10
113.3902939174169
 20
16.29666666666667
 30
0.0
 40
2.5
  1
株式会社
100
AcDbText
  0
TEXT
  5
34E
330
6B
100
AcDbEntity
  8
_F-5_固定文字
 62
     4
100
AcDbText
 10
94.9666666666668
 20
11.67199999999999
 30
0.0
 40
2.0
  1
ＫＩＲＩＩ　ＣＯＮＳＴＲＵＣＴＩＯＮ　ＭＡＴＥＲＩＡＬＳ　ＣＯ．，ＬＴＤ．
 41
0.65
100
AcDbText
  0
LINE
  5
34F
330
6B
100
AcDbEntity
  8
_1-0_中心線
  6
Continuous
 62
     3
100
AcDbLine
 10
104.5304256973831
 20
141.4429274734553
 30
0.0
 11
70.73042569738311
 21
141.4429274734553
 31
0.0
  0
LINE
  5
350
330
6B
100
AcDbEntity
  8
_1-0_中心線
  6
Continuous
 62
     3
100
AcDbLine
 10
24.53042569738309
 20
78.2517372419057
 30
0.0
 11
150.7304256973831
 21
78.2517372419057
 31
0.0
  0
LINE
  5
351
330
6B
100
AcDbEntity
  8
_1-0_中心線
  6
Continuous
 62
     3
100
AcDbLine
 10
24.53042569738309
 20
80.15173724190573
 30
0.0
 11
24.53042569738309
 21
78.2517372419057
 31
0.0
  0
LINE
  5
352
330
6B
100
AcDbEntity
  8
_1-0_中心線
  6
Continuous
 62
     3
100
AcDbLine
 10
24.53042569738315
 20
80.15173724190573
 30
0.0
 11
24.53042569738315
 21
78.2517372419057
 31
0.0
  0
LINE
  5
353
330
6B
100
AcDbEntity
  8
_1-0_中心線
  6
Continuous
 62
     3
100
AcDbLine
 10
24.53042569738309
 20
78.2517372419057
 30
0.0
 11
24.53042569738309
 21
80.15173724190573
 31
0.0
  0
LINE
  5
354
330
6B
100
AcDbEntity
  8
_1-0_中心線
  6
Continuous
 62
     3
100
AcDbLine
 10
150.7304256973831
 20
80.15173724190573
 30
0.0
 11
150.7304256973831
 21
78.2517372419057
 31
0.0
  0
LINE
  5
355
330
6B
100
AcDbEntity
  8
_1-0_中心線
  6
Continuous
 62
     3
100
AcDbLine
 10
137.6304256973831
 20
120.99289295523
 30
0.0
 11
137.6304256973831
 21
122.89289295523
 31
0.0
  0
LINE
  5
356
330
6B
100
AcDbEntity
  8
_1-0_中心線
  6
Continuous
 62
     3
100
AcDbLine
 10
37.6304256973831
 20
122.89289295523
 30
0.0
 11
37.6304256973831
 21
120.99289295523
 31
0.0
  0
ARC
  5
357
330
6B
100
AcDbEntity
  8
_1-0_中心線
  6
Continuous
 62
     3
100
AcDbCircle
 10
87.6304256973831
 20
80.15173724190573
 30
0.0
 40
63.1
100
AcDbArc
 50
139.6657972176745
 51
180.0
  0
LINE
  5
358
330
6B
100
AcDbEntity
  8
_1-0_中心線
  6
Continuous
 62
     4
100
AcDbLine
 10
47.16246032152571
 20
122.89289295523
 30
0.0
 11
47.16246032152571
 21
122.89289295523
 31
0.0
  0
LINE
  5
359
330
6B
100
AcDbEntity
  8
_1-0_中心線
  6
Continuous
 62
     4
100
AcDbLine
 10
47.16246032152571
 20
122.89289295523
 30
0.0
 11
54.63422313820889
 21
129.8497327200523
 31
0.0
  0
LINE
  5
35A
330
6B
100
AcDbEntity
  8
_1-0_中心線
  6
Continuous
 62
     4
100
AcDbLine
 10
54.63422313820889
 20
129.8497327200523
 30
0.0
 11
63.10855887276846
 21
135.2965240406702
 31
0.0
  0
LINE
  5
35B
330
6B
100
AcDbEntity
  8
_1-0_中心線
  6
Continuous
 62
     4
100
AcDbLine
 10
63.10855887276846
 20
135.2965240406702
 30
0.0
 11
70.22371838494382
 21
138.3794031878824
 31
0.0
  0
LINE
  5
35C
330
6B
100
AcDbEntity
  8
_1-0_中心線
  6
Continuous
 62
     4
100
AcDbLine
 10
70.86804559705814
 20
122.89289295523
 30
0.0
 11
70.86804559705814
 21
122.89289295523
 31
0.0
  0
LINE
  5
35D
330
6B
100
AcDbEntity
  8
_1-0_中心線
  6
Continuous
 62
     4
100
AcDbLine
 10
70.86804559705814
 20
122.89289295523
 30
0.0
 11
73.96295109056329
 21
129.8497327200523
 31
0.0
  0
LINE
  5
35E
330
6B
100
AcDbEntity
  8
_1-0_中心線
  6
Continuous
 62
     4
100
AcDbLine
 10
73.96295109056329
 20
129.8497327200523
 30
0.0
 11
77.47313588392083
 21
135.2965240406702
 31
0.0
  0
LINE
  5
35F
330
6B
100
AcDbEntity
  8
_1-0_中心線
  6
Continuous
 62
     4
100
AcDbLine
 10
77.47313588392083
 20
135.2965240406702
 30
0.0
 11
81.29194478842379
 21
139.0677689190163
 31
0.0
  0
LINE
  5
360
330
6B
100
AcDbEntity
  8
_1-0_中心線
  6
Continuous
 62
     4
100
AcDbLine
 10
81.29194478842379
 20
139.0677689190163
 30
0.0
 11
84.68127692961795
 21
140.8645851590064
 31
0.0
  0
LINE
  5
361
330
6B
100
AcDbEntity
  8
_1-0_中心線
  6
Continuous
 62
     3
100
AcDbLine
 10
86.68042569738314
 20
141.3517372419057
 30
0.0
 11
86.68042569738314
 21
122.89289295523
 31
0.0
  0
LINE
  5
362
330
6B
100
AcDbEntity
  8
_1-0_中心線
  6
Continuous
 62
     3
100
AcDbLine
 10
88.58042569738309
 20
141.3517372419057
 30
0.0
 11
88.58042569738309
 21
122.89289295523
 31
0.0
  0
LINE
  5
363
330
6B
100
AcDbEntity
  8
_1-0_中心線
  6
Continuous
 62
     4
100
AcDbLine
 10
90.57957446514828
 20
140.8645851590064
 30
0.0
 11
90.57957446514828
 21
140.8645851590064
 31
0.0
  0
LINE
  5
364
330
6B
100
AcDbEntity
  8
_1-0_中心線
  6
Continuous
 62
     4
100
AcDbLine
 10
90.57957446514828
 20
140.8645851590064
 30
0.0
 11
94.56927747772656
 21
138.6040013977729
 31
0.0
  0
LINE
  5
365
330
6B
100
AcDbEntity
  8
_1-0_中心線
  6
Continuous
 62
     4
100
AcDbLine
 10
94.56927747772656
 20
138.6040013977729
 30
0.0
 11
98.3481469901875
 21
134.5673751684362
 31
0.0
  0
LINE
  5
366
330
6B
100
AcDbEntity
  8
_1-0_中心線
  6
Continuous
 62
     4
100
AcDbLine
 10
98.3481469901875
 20
134.5673751684362
 30
0.0
 11
101.8013639645952
 21
128.8773573163433
 31
0.0
  0
LINE
  5
367
330
6B
100
AcDbEntity
  8
_1-0_中心線
  6
Continuous
 62
     4
100
AcDbLine
 10
101.8013639645952
 20
128.8773573163433
 30
0.0
 11
104.3928057977081
 21
122.89289295523
 31
0.0
  0
LINE
  5
368
330
6B
100
AcDbEntity
  8
_1-0_中心線
  6
Continuous
 62
     4
100
AcDbLine
 10
105.0371330098224
 20
138.3794031878824
 30
0.0
 11
105.0371330098224
 21
138.3794031878824
 31
0.0
  0
LINE
  5
369
330
6B
100
AcDbEntity
  8
_1-0_中心線
  6
Continuous
 62
     4
100
AcDbLine
 10
105.0371330098224
 20
138.3794031878824
 30
0.0
 11
114.1141502980171
 21
134.223108893525
 31
0.0
  0
LINE
  5
36A
330
6B
100
AcDbEntity
  8
_1-0_中心線
  6
Continuous
 62
     4
100
AcDbLine
 10
114.1141502980171
 20
134.223108893525
 30
0.0
 11
122.3864730156328
 21
128.4238833329673
 31
0.0
  0
LINE
  5
36B
330
6B
100
AcDbEntity
  8
_1-0_中心線
  6
Continuous
 62
     4
100
AcDbLine
 10
122.3864730156328
 20
128.4238833329673
 30
0.0
 11
128.0983910732405
 21
122.89289295523
 31
0.0
  0
ARC
  5
36C
330
6B
100
AcDbEntity
  8
_1-0_中心線
  6
Continuous
 62
     3
100
AcDbCircle
 10
87.6304256973831
 20
80.15173724190573
 30
0.0
 40
63.1
100
AcDbArc
 50
0.0
 51
40.33420278232545
  0
ARC
  5
36D
330
6B
100
AcDbEntity
  8
_1-0_中心線
  6
Continuous
 62
     3
100
AcDbCircle
 10
87.6304256973831
 20
80.15173724190573
 30
0.0
 40
61.2
100
AcDbArc
 50
0.0
 51
41.8620294748054
  0
LINE
  5
36E
330
6B
100
AcDbEntity
  8
_1-0_中心線
  6
Continuous
 62
     4
100
AcDbLine
 10
132.1792792226466
 20
120.99289295523
 30
0.0
 11
132.1792792226466
 21
120.99289295523
 31
0.0
  0
LINE
  5
36F
330
6B
100
AcDbEntity
  8
_1-0_中心線
  6
Continuous
 62
     4
100
AcDbLine
 10
132.1792792226466
 20
120.99289295523
 30
0.0
 11
138.0708837945778
 21
112.0199466845869
 31
0.0
  0
LINE
  5
370
330
6B
100
AcDbEntity
  8
_1-0_中心線
  6
Continuous
 62
     4
100
AcDbLine
 10
138.0708837945778
 20
112.0199466845869
 30
0.0
 11
142.4298805713291
 21
102.0787009961201
 31
0.0
  0
LINE
  5
371
330
6B
100
AcDbEntity
  8
_1-0_中心線
  6
Continuous
 62
     4
100
AcDbLine
 10
142.4298805713291
 20
102.0787009961201
 30
0.0
 11
145.1238236415977
 21
91.47121560956049
 31
0.0
  0
LINE
  5
372
330
6B
100
AcDbEntity
  8
_1-0_中心線
  6
Continuous
 62
     4
100
AcDbLine
 10
145.1238236415977
 20
91.47121560956049
 30
0.0
 11
146.0708589083945
 21
80.51979360073215
 31
0.0
  0
LINE
  5
373
330
6B
100
AcDbEntity
  8
_1-0_中心線
  6
Continuous
 62
     4
100
AcDbLine
 10
146.0708589083945
 20
80.51979360073215
 30
0.0
 11
146.0718530870739
 21
80.15173724190573
 31
0.0
  0
LINE
  5
374
330
6B
100
AcDbEntity
  8
_1-0_中心線
  6
Continuous
 62
     4
100
AcDbLine
 10
129.7398777925373
 20
120.99289295523
 30
0.0
 11
129.7398777925373
 21
120.99289295523
 31
0.0
  0
LINE
  5
375
330
6B
100
AcDbEntity
  8
_1-0_中心線
  6
Continuous
 62
     4
100
AcDbLine
 10
129.7398777925373
 20
120.99289295523
 30
0.0
 11
135.6522870926986
 21
112.4577237241474
 31
0.0
  0
LINE
  5
376
330
6B
100
AcDbEntity
  8
_1-0_中心線
  6
Continuous
 62
     4
100
AcDbLine
 10
135.6522870926986
 20
112.4577237241474
 30
0.0
 11
140.1055764345976
 21
102.9409534414198
 31
0.0
  0
LINE
  5
377
330
6B
100
AcDbEntity
  8
_1-0_中心線
  6
Continuous
 62
     4
100
AcDbLine
 10
140.1055764345976
 20
102.9409534414198
 30
0.0
 11
142.9644348750539
 21
92.73174435636992
 31
0.0
  0
LINE
  5
378
330
6B
100
AcDbEntity
  8
_1-0_中心線
  6
Continuous
 62
     4
100
AcDbLine
 10
142.9644348750539
 20
92.73174435636992
 30
0.0
 11
144.1419974470063
 21
82.14029812093775
 31
0.0
  0
LINE
  5
379
330
6B
100
AcDbEntity
  8
_1-0_中心線
  6
Continuous
 62
     4
100
AcDbLine
 10
144.1419974470063
 20
82.14029812093775
 30
0.0
 11
144.1718530870739
 21
80.15173724190573
 31
0.0
  0
LINE
  5
37A
330
6B
100
AcDbEntity
  8
_1-0_中心線
  6
Continuous
 62
     4
100
AcDbLine
 10
122.0664696579927
 20
120.99289295523
 30
0.0
 11
122.0664696579927
 21
120.99289295523
 31
0.0
  0
LINE
  5
37B
330
6B
100
AcDbEntity
  8
_1-0_中心線
  6
Continuous
 62
     4
100
AcDbLine
 10
122.0664696579927
 20
120.99289295523
 30
0.0
 11
126.6206509215463
 21
112.0199466845869
 31
0.0
  0
LINE
  5
37C
330
6B
100
AcDbEntity
  8
_1-0_中心線
  6
Continuous
 62
     4
100
AcDbLine
 10
126.6206509215463
 20
112.0199466845869
 30
0.0
 11
129.9901339216697
 21
102.0787009961201
 31
0.0
  0
LINE
  5
37D
330
6B
100
AcDbEntity
  8
_1-0_中心線
  6
Continuous
 62
     4
100
AcDbLine
 10
129.9901339216697
 20
102.0787009961201
 30
0.0
 11
132.0725386224448
 21
91.47121560956049
 31
0.0
  0
LINE
  5
37E
330
6B
100
AcDbEntity
  8
_1-0_中心線
  6
Continuous
 62
     4
100
AcDbLine
 10
132.0725386224448
 20
91.47121560956049
 30
0.0
 11
132.8045922107861
 21
80.51979360073215
 31
0.0
  0
LINE
  5
37F
330
6B
100
AcDbEntity
  8
_1-0_中心線
  6
Continuous
 62
     4
100
AcDbLine
 10
132.8045922107861
 20
80.51979360073215
 30
0.0
 11
132.8053607059998
 21
80.15173724190573
 31
0.0
  0
LINE
  5
380
330
6B
100
AcDbEntity
  8
_1-0_中心線
  6
Continuous
 62
     4
100
AcDbLine
 10
119.859605022957
 20
120.99289295523
 30
0.0
 11
119.859605022957
 21
120.99289295523
 31
0.0
  0
LINE
  5
381
330
6B
100
AcDbEntity
  8
_1-0_中心線
  6
Continuous
 62
     4
100
AcDbLine
 10
119.859605022957
 20
120.99289295523
 30
0.0
 11
124.384767192023
 21
112.4577237241474
 31
0.0
  0
LINE
  5
382
330
6B
100
AcDbEntity
  8
_1-0_中心線
  6
Continuous
 62
     4
100
AcDbLine
 10
124.384767192023
 20
112.4577237241474
 30
0.0
 11
127.7931672933686
 21
102.9409534414198
 31
0.0
  0
LINE
  5
383
330
6B
100
AcDbEntity
  8
_1-0_中心線
  6
Continuous
 62
     4
100
AcDbLine
 10
127.7931672933686
 20
102.9409534414198
 30
0.0
 11
129.981242814648
 21
92.73174435636994
 31
0.0
  0
LINE
  5
384
330
6B
100
AcDbEntity
  8
_1-0_中心線
  6
Continuous
 62
     4
100
AcDbLine
 10
129.981242814648
 20
92.73174435636994
 30
0.0
 11
130.8825101883668
 21
82.14029812093775
 31
0.0
  0
LINE
  5
385
330
6B
100
AcDbEntity
  8
_1-0_中心線
  6
Continuous
 62
     4
100
AcDbLine
 10
130.8825101883668
 20
82.14029812093775
 30
0.0
 11
130.9053607059998
 21
80.15173724190573
 31
0.0
  0
LINE
  5
386
330
6B
100
AcDbEntity
  8
_1-0_中心線
  6
Continuous
 62
     4
100
AcDbLine
 10
106.931580586793
 20
120.99289295523
 30
0.0
 11
106.931580586793
 21
120.99289295523
 31
0.0
  0
LINE
  5
387
330
6B
100
AcDbEntity
  8
_1-0_中心線
  6
Continuous
 62
     4
100
AcDbLine
 10
106.931580586793
 20
120.99289295523
 30
0.0
 11
109.4841664199056
 21
112.0199466845869
 31
0.0
  0
LINE
  5
388
330
6B
100
AcDbEntity
  8
_1-0_中心線
  6
Continuous
 62
     4
100
AcDbLine
 10
109.4841664199056
 20
112.0199466845869
 30
0.0
 11
111.3727373996908
 21
102.0787009961201
 31
0.0
  0
LINE
  5
389
330
6B
100
AcDbEntity
  8
_1-0_中心線
  6
Continuous
 62
     4
100
AcDbLine
 10
111.3727373996908
 20
102.0787009961201
 30
0.0
 11
112.5399102525908
 21
91.47121560956049
 31
0.0
  0
LINE
  5
38A
330
6B
100
AcDbEntity
  8
_1-0_中心線
  6
Continuous
 62
     4
100
AcDbLine
 10
112.5399102525908
 20
91.47121560956049
 30
0.0
 11
112.9502210220883
 21
80.51979360073215
 31
0.0
  0
LINE
  5
38B
330
6B
100
AcDbEntity
  8
_1-0_中心線
  6
Continuous
 62
     4
100
AcDbLine
 10
112.9502210220883
 20
80.51979360073215
 30
0.0
 11
112.9506517581266
 21
80.15173724190573
 31
0.0
  0
LINE
  5
38C
330
6B
100
AcDbEntity
  8
_1-0_中心線
  6
Continuous
 62
     4
100
AcDbLine
 10
105.0727318592961
 20
120.99289295523
 30
0.0
 11
105.0727318592961
 21
120.99289295523
 31
0.0
  0
LINE
  5
38D
330
6B
100
AcDbEntity
  8
_1-0_中心線
  6
Continuous
 62
     4
100
AcDbLine
 10
105.0727318592961
 20
120.99289295523
 30
0.0
 11
107.5217319777237
 21
112.4577237241474
 31
0.0
  0
LINE
  5
38E
330
6B
100
AcDbEntity
  8
_1-0_中心線
  6
Continuous
 62
     4
100
AcDbLine
 10
107.5217319777237
 20
112.4577237241474
 30
0.0
 11
109.3663448203099
 21
102.9409534414198
 31
0.0
  0
LINE
  5
38F
330
6B
100
AcDbEntity
  8
_1-0_中心線
  6
Continuous
 62
     4
100
AcDbLine
 10
109.3663448203099
 20
102.9409534414198
 30
0.0
 11
110.5505227592517
 21
92.73174435636994
 31
0.0
  0
LINE
  5
390
330
6B
100
AcDbEntity
  8
_1-0_中心線
  6
Continuous
 62
     4
100
AcDbLine
 10
110.5505227592517
 20
92.73174435636994
 30
0.0
 11
111.0382851470973
 21
82.14029812093775
 31
0.0
  0
LINE
  5
391
330
6B
100
AcDbEntity
  8
_1-0_中心線
  6
Continuous
 62
     4
100
AcDbLine
 10
111.0382851470973
 20
82.14029812093775
 30
0.0
 11
111.0506517581266
 21
80.15173724190573
 31
0.0
  0
LINE
  5
392
330
6B
100
AcDbEntity
  8
_1-0_中心線
  6
Continuous
 62
     3
100
AcDbLine
 10
88.58042569738309
 20
120.99289295523
 30
0.0
 11
88.58042569738309
 21
80.15173724190573
 31
0.0
  0
LINE
  5
393
330
6B
100
AcDbEntity
  8
_1-0_中心線
  6
Continuous
 62
     3
100
AcDbLine
 10
86.68042569738314
 20
120.99289295523
 30
0.0
 11
86.68042569738314
 21
80.15173724190573
 31
0.0
  0
LINE
  5
394
330
6B
100
AcDbEntity
  8
_1-0_中心線
  6
Continuous
 62
     3
100
AcDbLine
 10
86.68042569738314
 20
141.3517372419057
 30
0.0
 11
86.68042569738314
 21
122.89289295523
 31
0.0
  0
LINE
  5
395
330
6B
100
AcDbEntity
  8
_1-0_中心線
  6
Continuous
 62
     4
100
AcDbLine
 10
64.21019963663962
 20
80.15173724190573
 30
0.0
 11
64.21019963663962
 21
80.15173724190573
 31
0.0
  0
LINE
  5
396
330
6B
100
AcDbEntity
  8
_1-0_中心線
  6
Continuous
 62
     4
100
AcDbLine
 10
64.21019963663962
 20
80.15173724190573
 30
0.0
 11
64.56600549546435
 21
90.77900571512184
 31
0.0
  0
LINE
  5
397
330
6B
100
AcDbEntity
  8
_1-0_中心線
  6
Continuous
 62
     4
100
AcDbLine
 10
64.56600549546435
 20
90.77900571512184
 30
0.0
 11
65.62261209096461
 21
101.0833700134366
 31
0.0
  0
LINE
  5
398
330
6B
100
AcDbEntity
  8
_1-0_中心線
  6
Continuous
 62
     4
100
AcDbLine
 10
65.62261209096461
 20
101.0833700134366
 30
0.0
 11
67.34791496640489
 21
110.7517372419057
 31
0.0
  0
LINE
  5
399
330
6B
100
AcDbEntity
  8
_1-0_中心線
  6
Continuous
 62
     4
100
AcDbLine
 10
67.34791496640489
 20
110.7517372419057
 30
0.0
 11
69.68949166696027
 21
119.4903389547219
 31
0.0
  0
LINE
  5
39A
330
6B
100
AcDbEntity
  8
_1-0_中心線
  6
Continuous
 62
     4
100
AcDbLine
 10
69.68949166696027
 20
119.4903389547219
 30
0.0
 11
70.18811953547007
 21
120.99289295523
 31
0.0
  0
LINE
  5
39B
330
6B
100
AcDbEntity
  8
_1-0_中心線
  6
Continuous
 62
     4
100
AcDbLine
 10
62.31019963663961
 20
80.15173724190573
 30
0.0
 11
62.31019963663961
 21
80.15173724190573
 31
0.0
  0
LINE
  5
39C
330
6B
100
AcDbEntity
  8
_1-0_中心線
  6
Continuous
 62
     4
100
AcDbLine
 10
62.31019963663961
 20
80.15173724190573
 30
0.0
 11
62.69487076474115
 21
91.10893725268907
 31
0.0
  0
LINE
  5
39D
330
6B
100
AcDbEntity
  8
_1-0_中心線
  6
Continuous
 62
     4
100
AcDbLine
 10
62.69487076474115
 20
91.10893725268907
 30
0.0
 11
63.83719611147139
 21
101.7332082857554
 31
0.0
  0
LINE
  5
39E
330
6B
100
AcDbEntity
  8
_1-0_中心線
  6
Continuous
 62
     4
100
AcDbLine
 10
63.83719611147139
 20
101.7332082857554
 30
0.0
 11
65.70246669921445
 21
111.7017372419057
 31
0.0
  0
LINE
  5
39F
330
6B
100
AcDbEntity
  8
_1-0_中心線
  6
Continuous
 62
     4
100
AcDbLine
 10
65.70246669921445
 20
111.7017372419057
 30
0.0
 11
68.23400722503421
 21
120.7116354131263
 31
0.0
  0
LINE
  5
3A0
330
6B
100
AcDbEntity
  8
_1-0_中心線
  6
Continuous
 62
     4
100
AcDbLine
 10
68.23400722503421
 20
120.7116354131263
 30
0.0
 11
68.32927080797325
 21
120.99289295523
 31
0.0
  0
LINE
  5
3A1
330
6B
100
AcDbEntity
  8
_1-0_中心線
  6
Continuous
 62
     4
100
AcDbLine
 10
44.3554906887664
 20
80.15173724190573
 30
0.0
 11
44.3554906887664
 21
80.15173724190573
 31
0.0
  0
LINE
  5
3A2
330
6B
100
AcDbEntity
  8
_1-0_中心線
  6
Continuous
 62
     4
100
AcDbLine
 10
44.3554906887664
 20
80.15173724190573
 30
0.0
 11
45.01293418979797
 21
90.77900571512184
 31
0.0
  0
LINE
  5
3A3
330
6B
100
AcDbEntity
  8
_1-0_中心線
  6
Continuous
 62
     4
100
AcDbLine
 10
45.01293418979797
 20
90.77900571512184
 30
0.0
 11
46.96528860479623
 21
101.0833700134366
 31
0.0
  0
LINE
  5
3A4
330
6B
100
AcDbEntity
  8
_1-0_中心線
  6
Continuous
 62
     4
100
AcDbLine
 10
46.96528860479623
 20
101.0833700134366
 30
0.0
 11
50.1532326328005
 21
110.7517372419057
 31
0.0
  0
LINE
  5
3A5
330
6B
100
AcDbEntity
  8
_1-0_中心線
  6
Continuous
 62
     4
100
AcDbLine
 10
50.1532326328005
 20
110.7517372419057
 30
0.0
 11
54.47990220769736
 21
119.4903389547219
 31
0.0
  0
LINE
  5
3A6
330
6B
100
AcDbEntity
  8
_1-0_中心線
  6
Continuous
 62
     4
100
AcDbLine
 10
54.47990220769736
 20
119.4903389547219
 30
0.0
 11
55.40124637180921
 21
120.99289295523
 31
0.0
  0
LINE
  5
3A7
330
6B
100
AcDbEntity
  8
_1-0_中心線
  6
Continuous
 62
     4
100
AcDbLine
 10
42.4554906887664
 20
80.15173724190573
 30
0.0
 11
42.4554906887664
 21
80.15173724190573
 31
0.0
  0
LINE
  5
3A8
330
6B
100
AcDbEntity
  8
_1-0_中心線
  6
Continuous
 62
     4
100
AcDbLine
 10
42.4554906887664
 20
80.15173724190573
 30
0.0
 11
43.14179945907477
 21
91.10893725268907
 31
0.0
  0
LINE
  5
3A9
330
6B
100
AcDbEntity
  8
_1-0_中心線
  6
Continuous
 62
     4
100
AcDbLine
 10
43.14179945907477
 20
91.10893725268907
 30
0.0
 11
45.17987262530301
 21
101.7332082857554
 31
0.0
  0
LINE
  5
3AA
330
6B
100
AcDbEntity
  8
_1-0_中心線
  6
Continuous
 62
     4
100
AcDbLine
 10
45.17987262530301
 20
101.7332082857554
 30
0.0
 11
48.50778436561006
 21
111.7017372419057
 31
0.0
  0
LINE
  5
3AB
330
6B
100
AcDbEntity
  8
_1-0_中心線
  6
Continuous
 62
     4
100
AcDbLine
 10
48.50778436561006
 20
111.7017372419057
 30
0.0
 11
53.02441776577129
 21
120.7116354131263
 31
0.0
  0
LINE
  5
3AC
330
6B
100
AcDbEntity
  8
_1-0_中心線
  6
Continuous
 62
     4
100
AcDbLine
 10
53.02441776577129
 20
120.7116354131263
 30
0.0
 11
53.19438173677356
 21
120.99289295523
 31
0.0
  0
LINE
  5
3AD
330
6B
100
AcDbEntity
  8
_1-0_中心線
  6
Continuous
 62
     4
100
AcDbLine
 10
31.08899830769237
 20
80.15173724190573
 30
0.0
 11
31.08899830769237
 21
80.15173724190573
 31
0.0
  0
LINE
  5
3AE
330
6B
100
AcDbEntity
  8
_1-0_中心線
  6
Continuous
 62
     4
100
AcDbLine
 10
31.08899830769237
 20
80.15173724190573
 30
0.0
 11
31.94798963763885
 21
90.77900571512184
 31
0.0
  0
LINE
  5
3AF
330
6B
100
AcDbEntity
  8
_1-0_中心線
  6
Continuous
 62
     4
100
AcDbLine
 10
31.94798963763885
 20
90.77900571512184
 30
0.0
 11
34.49886361058848
 21
101.0833700134366
 31
0.0
  0
LINE
  5
3B0
330
6B
100
AcDbEntity
  8
_1-0_中心線
  6
Continuous
 62
     4
100
AcDbLine
 10
34.49886361058848
 20
101.0833700134366
 30
0.0
 11
38.66411321167767
 21
110.7517372419057
 31
0.0
  0
LINE
  5
3B1
330
6B
100
AcDbEntity
  8
_1-0_中心線
  6
Continuous
 62
     4
100
AcDbLine
 10
38.66411321167767
 20
110.7517372419057
 30
0.0
 11
44.31717943949532
 21
119.4903389547219
 31
0.0
  0
LINE
  5
3B2
330
6B
100
AcDbEntity
  8
_1-0_中心線
  6
Continuous
 62
     4
100
AcDbLine
 10
44.31717943949532
 20
119.4903389547219
 30
0.0
 11
45.52097360222889
 21
120.99289295523
 31
0.0
  0
LINE
  5
3B3
330
6B
100
AcDbEntity
  8
_1-0_中心線
  6
Continuous
 62
     4
100
AcDbLine
 10
29.18899830769237
 20
80.15173724190573
 30
0.0
 11
29.18899830769237
 21
80.15173724190573
 31
0.0
  0
LINE
  5
3B4
330
6B
100
AcDbEntity
  8
_1-0_中心線
  6
Continuous
 62
     4
100
AcDbLine
 10
29.18899830769237
 20
80.15173724190573
 30
0.0
 11
30.07685490691566
 21
91.10893725268899
 31
0.0
  0
LINE
  5
3B5
330
6B
100
AcDbEntity
  8
_1-0_中心線
  6
Continuous
 62
     4
100
AcDbLine
 10
30.07685490691566
 20
91.10893725268899
 30
0.0
 11
32.71344763109525
 21
101.7332082857554
 31
0.0
  0
LINE
  5
3B6
330
6B
100
AcDbEntity
  8
_1-0_中心線
  6
Continuous
 62
     4
100
AcDbLine
 10
32.71344763109525
 20
101.7332082857554
 30
0.0
 11
37.01866494448723
 21
111.7017372419057
 31
0.0
  0
LINE
  5
3B7
330
6B
100
AcDbEntity
  8
_1-0_中心線
  6
Continuous
 62
     4
100
AcDbLine
 10
37.01866494448723
 20
111.7017372419057
 30
0.0
 11
42.86169499756928
 21
120.7116354131263
 31
0.0
  0
LINE
  5
3B8
330
6B
100
AcDbEntity
  8
_1-0_中心線
  6
Continuous
 62
     4
100
AcDbLine
 10
42.86169499756928
 20
120.7116354131263
 30
0.0
 11
43.08157217211966
 21
120.99289295523
 31
0.0
  0
LINE
  5
3B9
330
6B
100
AcDbEntity
  8
_1-0_中心線
  6
Continuous
 62
     3
100
AcDbLine
 10
86.68042569738314
 20
120.99289295523
 30
0.0
 11
86.68042569738314
 21
80.15173724190573
 31
0.0
  0
LINE
  5
3BA
330
6B
100
AcDbEntity
  8
_1-0_中心線
  6
Continuous
 62
     3
100
AcDbLine
 10
37.6304256973831
 20
122.89289295523
 30
0.0
 11
137.6304256973831
 21
122.89289295523
 31
0.0
  0
LINE
  5
3BB
330
6B
100
AcDbEntity
  8
_1-0_中心線
  6
Continuous
 62
     3
100
AcDbLine
 10
137.6304256973831
 20
120.99289295523
 30
0.0
 11
37.6304256973831
 21
120.99289295523
 31
0.0
  0
LINE
  5
3BC
330
6B
100
AcDbEntity
  8
_1-0_中心線
  6
Continuous
 62
     3
100
AcDbLine
 10
104.5304256973831
 20
141.4429274734553
 30
0.0
 11
104.5304256973831
 21
143.3429274734553
 31
0.0
  0
LINE
  5
3BD
330
6B
100
AcDbEntity
  8
_1-0_中心線
  6
Continuous
 62
     3
100
AcDbLine
 10
70.73042569738311
 20
143.3429274734553
 30
0.0
 11
104.5304256973831
 21
143.3429274734553
 31
0.0
  0
LINE
  5
3BE
330
6B
100
AcDbEntity
  8
_1-0_中心線
  6
Continuous
 62
     3
100
AcDbLine
 10
70.73042569738311
 20
141.4429274734553
 30
0.0
 11
70.73042569738311
 21
143.3429274734553
 31
0.0
  0
LINE
  5
3BF
330
6B
100
AcDbEntity
  8
_1-0_中心線
  6
Continuous
 62
     3
100
AcDbLine
 10
24.53042569738309
 20
80.15173724190573
 30
0.0
 11
150.7304256973831
 21
80.15173724190573
 31
0.0
  0
ARC
  5
3C0
330
6B
100
AcDbEntity
  8
_1-0_中心線
  6
Continuous
 62
     3
100
AcDbCircle
 10
87.6304256973831
 20
80.15173724190573
 30
0.0
 40
63.1
100
AcDbArc
 50
103.7518884954796
 51
137.3626342780513
  0
ARC
  5
3C1
330
6B
100
AcDbEntity
  8
_1-0_中心線
  6
Continuous
 62
     3
100
AcDbCircle
 10
87.6304256973831
 20
80.15173724190573
 30
0.0
 40
63.1
100
AcDbArc
 50
42.63736572194865
 51
76.24811150452034
  0
LINE
  5
3C2
330
6B
100
AcDbEntity
  8
_1-0_中心線
  6
Continuous
 62
     4
100
AcDbLine
 10
90.57957446514828
 20
141.4429274734553
 30
0.0
 11
90.57957446514828
 21
140.8645851590064
 31
0.0
  0
LINE
  5
3C3
330
6B
100
AcDbEntity
  8
_1-0_中心線
  6
Continuous
 62
     4
100
AcDbLine
 10
93.64949686871677
 20
141.4429274734553
 30
0.0
 11
93.64949686871677
 21
141.4429274734553
 31
0.0
  0
LINE
  5
3C4
330
6B
100
AcDbEntity
  8
_1-0_中心線
  6
Continuous
 62
     4
100
AcDbLine
 10
93.64949686871677
 20
141.4429274734553
 30
0.0
 11
97.82882681248928
 21
137.9070539082779
 31
0.0
  0
LINE
  5
3C5
330
6B
100
AcDbEntity
  8
_1-0_中心線
  6
Continuous
 62
     4
100
AcDbLine
 10
97.82882681248928
 20
137.9070539082779
 30
0.0
 11
101.6982834990193
 21
132.6163142717932
 31
0.0
  0
LINE
  5
3C6
330
6B
100
AcDbEntity
  8
_1-0_中心線
  6
Continuous
 62
     4
100
AcDbLine
 10
101.6982834990193
 20
132.6163142717932
 30
0.0
 11
105.1402954449261
 21
125.7314650106123
 31
0.0
  0
LINE
  5
3C7
330
6B
100
AcDbEntity
  8
_1-0_中心線
  6
Continuous
 62
     4
100
AcDbLine
 10
105.1402954449261
 20
125.7314650106123
 30
0.0
 11
106.2573893274153
 21
122.89289295523
 31
0.0
  0
LINE
  5
3C8
330
6B
100
AcDbEntity
  8
_1-0_中心線
  6
Continuous
 62
     4
100
AcDbLine
 10
95.11983809512949
 20
140.4282451357192
 30
0.0
 11
95.11983809512949
 21
140.4282451357192
 31
0.0
  0
LINE
  5
3C9
330
6B
100
AcDbEntity
  8
_1-0_中心線
  6
Continuous
 62
     4
100
AcDbLine
 10
95.11983809512949
 20
140.4282451357192
 30
0.0
 11
102.4072771273893
 21
137.6732925375603
 31
0.0
  0
LINE
  5
3CA
330
6B
100
AcDbEntity
  8
_1-0_中心線
  6
Continuous
 62
     4
100
AcDbLine
 10
102.4072771273893
 20
137.6732925375603
 30
0.0
 11
109.245729006396
 21
133.1705765890543
 31
0.0
  0
LINE
  5
3CB
330
6B
100
AcDbEntity
  8
_1-0_中心線
  6
Continuous
 62
     4
100
AcDbLine
 10
109.245729006396
 20
133.1705765890543
 30
0.0
 11
115.4274108322296
 21
127.0569100358124
 31
0.0
  0
LINE
  5
3CC
330
6B
100
AcDbEntity
  8
_1-0_中心線
  6
Continuous
 62
     4
100
AcDbLine
 10
115.4274108322296
 20
127.0569100358124
 30
0.0
 11
118.6032654791126
 21
122.89289295523
 31
0.0
  0
LINE
  5
3CD
330
6B
100
AcDbEntity
  8
_1-0_中心線
  6
Continuous
 62
     4
100
AcDbLine
 10
98.36931674539025
 20
141.4429274734553
 30
0.0
 11
98.36931674539025
 21
141.4429274734553
 31
0.0
  0
LINE
  5
3CE
330
6B
100
AcDbEntity
  8
_1-0_中心線
  6
Continuous
 62
     4
100
AcDbLine
 10
98.36931674539025
 20
141.4429274734553
 30
0.0
 11
105.8258441135328
 21
137.9070539082779
 31
0.0
  0
LINE
  5
3CF
330
6B
100
AcDbEntity
  8
_1-0_中心線
  6
Continuous
 62
     4
100
AcDbLine
 10
105.8258441135328
 20
137.9070539082779
 30
0.0
 11
112.7295129004266
 21
132.6163142717932
 31
0.0
  0
LINE
  5
3D0
330
6B
100
AcDbEntity
  8
_1-0_中心線
  6
Continuous
 62
     4
100
AcDbLine
 10
112.7295129004266
 20
132.6163142717932
 30
0.0
 11
118.8705586234069
 21
125.7314650106123
 31
0.0
  0
LINE
  5
3D1
330
6B
100
AcDbEntity
  8
_1-0_中心線
  6
Continuous
 62
     4
100
AcDbLine
 10
118.8705586234069
 20
125.7314650106123
 30
0.0
 11
120.8636152185142
 21
122.89289295523
 31
0.0
  0
LINE
  5
3D2
330
6B
100
AcDbEntity
  8
_1-0_中心線
  6
Continuous
 62
     4
100
AcDbLine
 10
101.5229995618103
 20
141.4429274734553
 30
0.0
 11
101.5229995618103
 21
141.4429274734553
 31
0.0
  0
LINE
  5
3D3
330
6B
100
AcDbEntity
  8
_1-0_中心線
  6
Continuous
 62
     4
100
AcDbLine
 10
101.5229995618103
 20
141.4429274734553
 30
0.0
 11
111.1692802411611
 21
137.9070539082779
 31
0.0
  0
LINE
  5
3D4
330
6B
100
AcDbEntity
  8
_1-0_中心線
  6
Continuous
 62
     4
100
AcDbLine
 10
111.1692802411611
 20
137.9070539082779
 30
0.0
 11
120.1003447364343
 21
132.6163142717932
 31
0.0
  0
LINE
  5
3D5
330
6B
100
AcDbEntity
  8
_1-0_中心線
  6
Continuous
 62
     4
100
AcDbLine
 10
120.1003447364343
 20
132.6163142717932
 30
0.0
 11
128.0448271722777
 21
125.7314650106123
 31
0.0
  0
LINE
  5
3D6
330
6B
100
AcDbEntity
  8
_1-0_中心線
  6
Continuous
 62
     4
100
AcDbLine
 10
128.0448271722777
 20
125.7314650106123
 30
0.0
 11
130.6231833395703
 21
122.89289295523
 31
0.0
  0
ARC
  5
3D7
330
6B
100
AcDbEntity
  8
_1-0_中心線
  6
Continuous
 62
     3
100
AcDbCircle
 10
87.6304256973831
 20
80.15173724190573
 30
0.0
 40
61.2
100
AcDbArc
 50
44.29756728432918
 51
51.92246524467534
  0
LINE
  5
3D8
330
6B
100
AcDbEntity
  8
_1-0_中心線
  6
Continuous
 62
     4
100
AcDbLine
 10
84.68127692961795
 20
141.4429274734553
 30
0.0
 11
84.68127692961795
 21
140.8645851590064
 31
0.0
  0
LINE
  5
3D9
330
6B
100
AcDbEntity
  8
_1-0_中心線
  6
Continuous
 62
     4
100
AcDbLine
 10
69.00346206735088
 20
122.89289295523
 30
0.0
 11
69.00346206735088
 21
122.89289295523
 31
0.0
  0
LINE
  5
3DA
330
6B
100
AcDbEntity
  8
_1-0_中心線
  6
Continuous
 62
     4
100
AcDbLine
 10
69.00346206735088
 20
122.89289295523
 30
0.0
 11
72.26465333854545
 21
130.304283242704
 31
0.0
  0
LINE
  5
3DB
330
6B
100
AcDbEntity
  8
_1-0_中心線
  6
Continuous
 62
     4
100
AcDbLine
 10
72.26465333854545
 20
130.304283242704
 30
0.0
 11
75.99272582740733
 21
136.1918137983566
 31
0.0
  0
LINE
  5
3DC
330
6B
100
AcDbEntity
  8
_1-0_中心線
  6
Continuous
 62
     4
100
AcDbLine
 10
75.99272582740733
 20
136.1918137983566
 30
0.0
 11
80.07440393785811
 21
140.3765949854884
 31
0.0
  0
LINE
  5
3DD
330
6B
100
AcDbEntity
  8
_1-0_中心線
  6
Continuous
 62
     4
100
AcDbLine
 10
80.07440393785811
 20
140.3765949854884
 30
0.0
 11
81.61135452604947
 21
141.4429274734553
 31
0.0
  0
LINE
  5
3DE
330
6B
100
AcDbEntity
  8
_1-0_中心線
  6
Continuous
 62
     4
100
AcDbLine
 10
56.65758591565365
 20
122.89289295523
 30
0.0
 11
56.65758591565365
 21
122.89289295523
 31
0.0
  0
LINE
  5
3DF
330
6B
100
AcDbEntity
  8
_1-0_中心線
  6
Continuous
 62
     4
100
AcDbLine
 10
56.65758591565365
 20
122.89289295523
 30
0.0
 11
62.37622559666601
 21
129.8497327200523
 31
0.0
  0
LINE
  5
3E0
330
6B
100
AcDbEntity
  8
_1-0_中心線
  6
Continuous
 62
     4
100
AcDbLine
 10
62.37622559666601
 20
129.8497327200523
 30
0.0
 11
68.86220136849678
 21
135.2965240406702
 31
0.0
  0
LINE
  5
3E1
330
6B
100
AcDbEntity
  8
_1-0_中心線
  6
Continuous
 62
     4
100
AcDbLine
 10
68.86220136849678
 20
135.2965240406702
 30
0.0
 11
75.91844013938099
 21
139.0677689190163
 31
0.0
  0
LINE
  5
3E2
330
6B
100
AcDbEntity
  8
_1-0_中心線
  6
Continuous
 62
     4
100
AcDbLine
 10
75.91844013938099
 20
139.0677689190163
 30
0.0
 11
80.14101329963674
 21
140.4282451357192
 31
0.0
  0
LINE
  5
3E3
330
6B
100
AcDbEntity
  8
_1-0_中心線
  6
Continuous
 62
     4
100
AcDbLine
 10
54.39723617625196
 20
122.89289295523
 30
0.0
 11
54.39723617625196
 21
122.89289295523
 31
0.0
  0
LINE
  5
3E4
330
6B
100
AcDbEntity
  8
_1-0_中心線
  6
Continuous
 62
     4
100
AcDbLine
 10
54.39723617625196
 20
122.89289295523
 30
0.0
 11
60.21567173735046
 21
130.304283242704
 31
0.0
  0
LINE
  5
3E5
330
6B
100
AcDbEntity
  8
_1-0_中心線
  6
Continuous
 62
     4
100
AcDbLine
 10
60.21567173735046
 20
130.304283242704
 30
0.0
 11
66.86709072498968
 21
136.1918137983566
 31
0.0
  0
LINE
  5
3E6
330
6B
100
AcDbEntity
  8
_1-0_中心線
  6
Continuous
 62
     4
100
AcDbLine
 10
66.86709072498968
 20
136.1918137983566
 30
0.0
 11
74.14939313901064
 21
140.3765949854884
 31
0.0
  0
LINE
  5
3E7
330
6B
100
AcDbEntity
  8
_1-0_中心線
  6
Continuous
 62
     4
100
AcDbLine
 10
74.14939313901064
 20
140.3765949854884
 30
0.0
 11
76.89153464937598
 21
141.4429274734553
 31
0.0
  0
LINE
  5
3E8
330
6B
100
AcDbEntity
  8
_1-0_中心線
  6
Continuous
 62
     4
100
AcDbLine
 10
44.63766805519585
 20
122.89289295523
 30
0.0
 11
44.63766805519585
 21
122.89289295523
 31
0.0
  0
LINE
  5
3E9
330
6B
100
AcDbEntity
  8
_1-0_中心線
  6
Continuous
 62
     4
100
AcDbLine
 10
44.63766805519585
 20
122.89289295523
 30
0.0
 11
52.16479962274927
 21
130.304283242704
 31
0.0
  0
LINE
  5
3EA
330
6B
100
AcDbEntity
  8
_1-0_中心線
  6
Continuous
 62
     4
100
AcDbLine
 10
52.16479962274927
 20
130.304283242704
 30
0.0
 11
60.76953629210771
 21
136.1918137983566
 31
0.0
  0
LINE
  5
3EB
330
6B
100
AcDbEntity
  8
_1-0_中心線
  6
Continuous
 62
     4
100
AcDbLine
 10
60.76953629210771
 20
136.1918137983566
 30
0.0
 11
70.19042749377958
 21
140.3765949854884
 31
0.0
  0
LINE
  5
3EC
330
6B
100
AcDbEntity
  8
_1-0_中心線
  6
Continuous
 62
     4
100
AcDbLine
 10
70.19042749377958
 20
140.3765949854884
 30
0.0
 11
73.73785183295585
 21
141.4429274734553
 31
0.0
  0
ARC
  5
3ED
330
6B
100
AcDbEntity
  8
_1-0_中心線
  6
Continuous
 62
     3
100
AcDbCircle
 10
87.6304256973831
 20
80.15173724190573
 30
0.0
 40
61.2
100
AcDbArc
 50
128.0775347553249
 51
135.7024327156708
  0
ARC
  5
3EE
330
6B
100
AcDbEntity
  8
_1-0_中心線
  6
Continuous
 62
     3
100
AcDbCircle
 10
87.6304256973831
 20
80.15173724190573
 30
0.0
 40
61.2
100
AcDbArc
 50
138.1379705251946
 51
180.0
  0
TEXT
  5
3EF
330
6B
100
AcDbEntity
  8
_1-6_文字
 62
     3
100
AcDbText
 10
17.33965648835121
 20
153.6859198749892
 30
0.0
 40
4.0
  1
Ｒ天井（角パイプ、ドーム天井）
100
AcDbText
  0
LINE
  5
3F0
330
6B
100
AcDbEntity
  8
_1-0_中心線
  6
Continuous
 62
     3
100
AcDbLine
 10
241.3496769377821
 20
80.15173724190573
 30
0.0
 11
241.3496769377821
 21
78.2517372419057
 31
0.0
  0
LINE
  5
3F1
330
6B
100
AcDbEntity
  8
_1-0_中心線
  6
Continuous
 62
     4
100
AcDbLine
 10
215.9933862539781
 20
128.3269633135548
 30
0.0
 11
215.9933862539781
 21
128.3269633135548
 31
0.0
  0
LINE
  5
3F2
330
6B
100
AcDbEntity
  8
_1-0_中心線
  6
Continuous
 62
     4
100
AcDbLine
 10
215.9933862539781
 20
128.3269633135548
 30
0.0
 11
223.1679001909506
 21
120.518494477393
 31
0.0
  0
LINE
  5
3F3
330
6B
100
AcDbEntity
  8
_1-0_中心線
  6
Continuous
 62
     4
100
AcDbLine
 10
223.1679001909506
 20
120.518494477393
 30
0.0
 11
228.9775966440932
 21
111.4835021491956
 31
0.0
  0
LINE
  5
3F4
330
6B
100
AcDbEntity
  8
_1-0_中心線
  6
Continuous
 62
     4
100
AcDbLine
 10
228.9775966440932
 20
111.4835021491956
 30
0.0
 11
233.2459509265255
 21
101.4965099989283
 31
0.0
  0
LINE
  5
3F5
330
6B
100
AcDbEntity
  8
_1-0_中心線
  6
Continuous
 62
     4
100
AcDbLine
 10
233.2459509265255
 20
101.4965099989283
 30
0.0
 11
235.8432712532673
 21
90.86096772941514
 31
0.0
  0
LINE
  5
3F6
330
6B
100
AcDbEntity
  8
_1-0_中心線
  6
Continuous
 62
     4
100
AcDbLine
 10
235.8432712532673
 20
90.86096772941514
 30
0.0
 11
236.6911043274728
 21
80.15173724190573
 31
0.0
  0
LINE
  5
3F7
330
6B
100
AcDbEntity
  8
_1-0_中心線
  6
Continuous
 62
     4
100
AcDbLine
 10
181.1988257055472
 20
140.8645851590064
 30
0.0
 11
181.1988257055472
 21
140.8645851590064
 31
0.0
  0
LINE
  5
3F8
330
6B
100
AcDbEntity
  8
_1-0_中心線
  6
Continuous
 62
     4
100
AcDbLine
 10
181.1988257055472
 20
140.8645851590064
 30
0.0
 11
185.1885287181255
 21
138.6040013977729
 31
0.0
  0
LINE
  5
3F9
330
6B
100
AcDbEntity
  8
_1-0_中心線
  6
Continuous
 62
     4
100
AcDbLine
 10
185.1885287181255
 20
138.6040013977729
 30
0.0
 11
188.9673982305865
 21
134.5673751684362
 31
0.0
  0
LINE
  5
3FA
330
6B
100
AcDbEntity
  8
_1-0_中心線
  6
Continuous
 62
     4
100
AcDbLine
 10
188.9673982305865
 20
134.5673751684362
 30
0.0
 11
192.4206152049941
 21
128.8773573163433
 31
0.0
  0
LINE
  5
3FB
330
6B
100
AcDbEntity
  8
_1-0_中心線
  6
Continuous
 62
     4
100
AcDbLine
 10
192.4206152049941
 20
128.8773573163433
 30
0.0
 11
195.4432553909935
 21
121.7068361546421
 31
0.0
  0
LINE
  5
3FC
330
6B
100
AcDbEntity
  8
_1-0_中心線
  6
Continuous
 62
     4
100
AcDbLine
 10
195.4432553909935
 20
121.7068361546421
 30
0.0
 11
197.9434773960624
 21
113.273684340372
 31
0.0
  0
LINE
  5
3FD
330
6B
100
AcDbEntity
  8
_1-0_中心線
  6
Continuous
 62
     4
100
AcDbLine
 10
197.9434773960624
 20
113.273684340372
 30
0.0
 11
199.8453132397504
 21
103.8341389240289
 31
0.0
  0
LINE
  5
3FE
330
6B
100
AcDbEntity
  8
_1-0_中心線
  6
Continuous
 62
     4
100
AcDbLine
 10
199.8453132397504
 20
103.8341389240289
 30
0.0
 11
201.0909766023223
 21
93.67501571644806
 31
0.0
  0
LINE
  5
3FF
330
6B
100
AcDbEntity
  8
_1-0_中心線
  6
Continuous
 62
     4
100
AcDbLine
 10
201.0909766023223
 20
93.67501571644806
 30
0.0
 11
201.6426186328425
 21
83.10499453552733
 31
0.0
  0
LINE
  5
400
330
6B
100
AcDbEntity
  8
_1-0_中心線
  6
Continuous
 62
     4
100
AcDbLine
 10
201.6426186328425
 20
83.10499453552733
 30
0.0
 11
201.6699029985256
 21
80.15173724190573
 31
0.0
  0
LINE
  5
401
330
6B
100
AcDbEntity
  8
_1-0_中心線
  6
Continuous
 62
     4
100
AcDbLine
 10
182.9541968173187
 20
140.9890200987698
 30
0.0
 11
182.9541968173187
 21
140.1043000464667
 31
0.0
  0
LINE
  5
402
330
6B
100
AcDbEntity
  8
_1-0_中心線
  6
Continuous
 62
     4
100
AcDbLine
 10
185.7390893355285
 20
140.4282451357193
 30
0.0
 11
185.7390893355285
 21
140.4282451357193
 31
0.0
  0
LINE
  5
403
330
6B
100
AcDbEntity
  8
_1-0_中心線
  6
Continuous
 62
     4
100
AcDbLine
 10
185.7390893355285
 20
140.4282451357193
 30
0.0
 11
189.8253783768717
 21
136.2715041318124
 31
0.0
  0
LINE
  5
404
330
6B
100
AcDbEntity
  8
_1-0_中心線
  6
Continuous
 62
     4
100
AcDbLine
 10
189.8253783768717
 20
136.2715041318124
 30
0.0
 11
193.5599455875759
 21
130.4095924089281
 31
0.0
  0
LINE
  5
405
330
6B
100
AcDbEntity
  8
_1-0_中心線
  6
Continuous
 62
     4
100
AcDbLine
 10
193.5599455875759
 20
130.4095924089281
 30
0.0
 11
196.8293180327258
 21
123.0206211884956
 31
0.0
  0
LINE
  5
406
330
6B
100
AcDbEntity
  8
_1-0_中心線
  6
Continuous
 62
     4
100
AcDbLine
 10
196.8293180327258
 20
123.0206211884956
 30
0.0
 11
199.5341574849579
 21
114.329100622048
 31
0.0
  0
LINE
  5
407
330
6B
100
AcDbEntity
  8
_1-0_中心線
  6
Continuous
 62
     4
100
AcDbLine
 10
199.5341574849579
 20
114.329100622048
 30
0.0
 11
201.5922787662309
 21
104.599118163875
 31
0.0
  0
LINE
  5
408
330
6B
100
AcDbEntity
  8
_1-0_中心線
  6
Continuous
 62
     4
100
AcDbLine
 10
201.5922787662309
 20
104.599118163875
 30
0.0
 11
202.9411469028729
 21
94.12631440735973
 31
0.0
  0
LINE
  5
409
330
6B
100
AcDbEntity
  8
_1-0_中心線
  6
Continuous
 62
     4
100
AcDbLine
 10
202.9411469028729
 20
94.12631440735973
 30
0.0
 11
203.5397772191123
 21
83.22890019514934
 31
0.0
  0
LINE
  5
40A
330
6B
100
AcDbEntity
  8
_1-0_中心線
  6
Continuous
 62
     4
100
AcDbLine
 10
203.5397772191123
 20
83.22890019514934
 30
0.0
 11
203.5699029985256
 21
80.15173724190573
 31
0.0
  0
LINE
  5
40B
330
6B
100
AcDbEntity
  8
_1-0_中心線
  6
Continuous
 62
     4
100
AcDbLine
 10
181.1988257055472
 20
141.2094561895636
 30
0.0
 11
181.1988257055472
 21
140.8645851590064
 31
0.0
  0
LINE
  5
40C
330
6B
100
AcDbEntity
  8
_1-0_中心線
  6
Continuous
 62
     4
100
AcDbLine
 10
181.1134594015875
 20
141.2846968463613
 30
0.0
 11
181.1134594015875
 21
141.2175828513787
 31
0.0
  0
LINE
  5
40D
330
6B
100
AcDbEntity
  8
_1-0_中心線
  6
Continuous
 62
     4
100
AcDbLine
 10
182.456962285842
 20
141.206947912249
 30
0.0
 11
182.456962285842
 21
141.0618144048843
 31
0.0
  0
LINE
  5
40E
330
6B
100
AcDbEntity
  8
_1-0_中心線
  6
Continuous
 62
     4
100
AcDbLine
 10
195.6563842502214
 20
138.3794031878824
 30
0.0
 11
195.6563842502214
 21
138.3794031878824
 31
0.0
  0
LINE
  5
40F
330
6B
100
AcDbEntity
  8
_1-0_中心線
  6
Continuous
 62
     4
100
AcDbLine
 10
195.6563842502214
 20
138.3794031878824
 30
0.0
 11
204.7334015384161
 21
134.223108893525
 31
0.0
  0
LINE
  5
410
330
6B
100
AcDbEntity
  8
_1-0_中心線
  6
Continuous
 62
     4
100
AcDbLine
 10
204.7334015384161
 20
134.223108893525
 30
0.0
 11
213.0057242560317
 21
128.4238833329673
 31
0.0
  0
LINE
  5
411
330
6B
100
AcDbEntity
  8
_1-0_中心線
  6
Continuous
 62
     4
100
AcDbLine
 10
213.0057242560317
 20
128.4238833329673
 30
0.0
 11
220.2220020632911
 21
121.1579330403172
 31
0.0
  0
LINE
  5
412
330
6B
100
AcDbEntity
  8
_1-0_中心線
  6
Continuous
 62
     4
100
AcDbLine
 10
220.2220020632911
 20
121.1579330403172
 30
0.0
 11
226.1629720106331
 21
112.6460302384687
 31
0.0
  0
LINE
  5
413
330
6B
100
AcDbEntity
  8
_1-0_中心線
  6
Continuous
 62
     4
100
AcDbLine
 10
226.1629720106331
 20
112.6460302384687
 30
0.0
 11
230.6481207324836
 21
103.1468047868252
 31
0.0
  0
LINE
  5
414
330
6B
100
AcDbEntity
  8
_1-0_中心線
  6
Continuous
 62
     4
100
AcDbLine
 10
230.6481207324836
 20
103.1468047868252
 30
0.0
 11
233.5411692545241
 21
92.94888584389507
 31
0.0
  0
LINE
  5
415
330
6B
100
AcDbEntity
  8
_1-0_中心線
  6
Continuous
 62
     4
100
AcDbLine
 10
233.5411692545241
 20
92.94888584389507
 30
0.0
 11
234.7542137613654
 21
82.36213201636312
 31
0.0
  0
LINE
  5
416
330
6B
100
AcDbEntity
  8
_1-0_中心線
  6
Continuous
 62
     4
100
AcDbLine
 10
234.7542137613654
 20
82.36213201636312
 30
0.0
 11
234.7911043274728
 21
80.15173724190573
 31
0.0
  0
LINE
  5
417
330
6B
100
AcDbEntity
  8
_1-0_中心線
  6
Continuous
 62
     4
100
AcDbLine
 10
194.0082019684571
 20
139.2880956761007
 30
0.0
 11
194.0082019684571
 21
139.2880956761007
 31
0.0
  0
LINE
  5
418
330
6B
100
AcDbEntity
  8
_1-0_中心線
  6
Continuous
 62
     4
100
AcDbLine
 10
194.0082019684571
 20
139.2880956761007
 30
0.0
 11
201.120582728528
 21
134.5674444558422
 31
0.0
  0
LINE
  5
419
330
6B
100
AcDbEntity
  8
_1-0_中心線
  6
Continuous
 62
     4
100
AcDbLine
 10
201.120582728528
 20
134.5674444558422
 30
0.0
 11
207.5380425893837
 21
128.1933995075646
 31
0.0
  0
LINE
  5
41A
330
6B
100
AcDbEntity
  8
_1-0_中心線
  6
Continuous
 62
     4
100
AcDbLine
 10
207.5380425893837
 20
128.1933995075646
 30
0.0
 11
213.0655902805436
 21
120.3596329615991
 31
0.0
  0
LINE
  5
41B
330
6B
100
AcDbEntity
  8
_1-0_中心線
  6
Continuous
 62
     4
100
AcDbLine
 10
213.0655902805436
 20
120.3596329615991
 30
0.0
 11
217.535274062486
 21
111.3041698503676
 31
0.0
  0
LINE
  5
41C
330
6B
100
AcDbEntity
  8
_1-0_中心線
  6
Continuous
 62
     4
100
AcDbLine
 10
217.535274062486
 20
111.3041698503676
 30
0.0
 11
220.8112848552655
 21
101.3021558382196
 31
0.0
  0
LINE
  5
41D
330
6B
100
AcDbEntity
  8
_1-0_中心線
  6
Continuous
 62
     4
100
AcDbLine
 10
220.8112848552655
 20
101.3021558382196
 30
0.0
 11
222.7940827286851
 21
90.65749705965082
 31
0.0
  0
LINE
  5
41E
330
6B
100
AcDbEntity
  8
_1-0_中心線
  6
Continuous
 62
     4
100
AcDbLine
 10
222.7940827286851
 20
90.65749705965082
 30
0.0
 11
223.4246119463988
 21
80.15173724190573
 31
0.0
  0
LINE
  5
41F
330
6B
100
AcDbEntity
  8
_1-0_中心線
  6
Continuous
 62
     4
100
AcDbLine
 10
181.1134594015875
 20
141.2175828513787
 30
0.0
 11
181.1134594015875
 21
141.2175828513787
 31
0.0
  0
LINE
  5
420
330
6B
100
AcDbEntity
  8
_1-0_中心線
  6
Continuous
 62
     4
100
AcDbLine
 10
181.1134594015875
 20
141.2175828513787
 30
0.0
 11
188.5680931909737
 21
139.5865803228102
 31
0.0
  0
LINE
  5
421
330
6B
100
AcDbEntity
  8
_1-0_中心線
  6
Continuous
 62
     4
100
AcDbLine
 10
188.5680931909737
 20
139.5865803228102
 30
0.0
 11
195.7092071238771
 21
136.1496801627101
 31
0.0
  0
LINE
  5
422
330
6B
100
AcDbEntity
  8
_1-0_中心線
  6
Continuous
 62
     4
100
AcDbLine
 10
195.7092071238771
 20
136.1496801627101
 30
0.0
 11
202.3198220670246
 21
131.0113108432878
 31
0.0
  0
LINE
  5
423
330
6B
100
AcDbEntity
  8
_1-0_中心線
  6
Continuous
 62
     4
100
AcDbLine
 10
202.3198220670246
 20
131.0113108432878
 30
0.0
 11
208.1990778305012
 21
124.3275991161735
 31
0.0
  0
LINE
  5
424
330
6B
100
AcDbEntity
  8
_1-0_中心線
  6
Continuous
 62
     4
100
AcDbLine
 10
208.1990778305012
 20
124.3275991161735
 30
0.0
 11
213.1683362029806
 21
116.3016261800743
 31
0.0
  0
LINE
  5
425
330
6B
100
AcDbEntity
  8
_1-0_中心線
  6
Continuous
 62
     4
100
AcDbLine
 10
213.1683362029806
 20
116.3016261800743
 30
0.0
 11
217.0766087833812
 21
107.1772571613152
 31
0.0
  0
LINE
  5
426
330
6B
100
AcDbEntity
  8
_1-0_中心線
  6
Continuous
 62
     4
100
AcDbLine
 10
217.0766087833812
 20
107.1772571613152
 30
0.0
 11
219.8051446870287
 21
97.23173139537792
 31
0.0
  0
LINE
  5
427
330
6B
100
AcDbEntity
  8
_1-0_中心線
  6
Continuous
 62
     4
100
AcDbLine
 10
219.8051446870287
 20
97.23173139537792
 30
0.0
 11
221.2710387311967
 21
86.76723864998141
 31
0.0
  0
LINE
  5
428
330
6B
100
AcDbEntity
  8
_1-0_中心線
  6
Continuous
 62
     4
100
AcDbLine
 10
221.2710387311967
 20
86.76723864998141
 30
0.0
 11
221.5246119463988
 21
80.15173724190573
 31
0.0
  0
LINE
  5
429
330
6B
100
AcDbEntity
  8
_1-0_中心線
  6
Continuous
 62
     3
100
AcDbLine
 10
193.249676937782
 20
141.4429274734553
 30
0.0
 11
195.1496769377821
 21
141.4429274734553
 31
0.0
  0
LINE
  5
42A
330
6B
100
AcDbEntity
  8
_1-0_中心線
  6
Continuous
 62
     3
100
AcDbLine
 10
195.1496769377821
 20
141.4429274734553
 30
0.0
 11
195.1496769377821
 21
143.3429274734553
 31
0.0
  0
LINE
  5
42B
330
6B
100
AcDbEntity
  8
_1-0_中心線
  6
Continuous
 62
     3
100
AcDbLine
 10
195.1496769377821
 20
143.3429274734553
 30
0.0
 11
193.249676937782
 21
143.3429274734553
 31
0.0
  0
LINE
  5
42C
330
6B
100
AcDbEntity
  8
_1-0_中心線
  6
Continuous
 62
     3
100
AcDbLine
 10
193.249676937782
 20
143.3429274734553
 30
0.0
 11
193.249676937782
 21
141.4429274734553
 31
0.0
  0
LINE
  5
42D
330
6B
100
AcDbEntity
  8
_1-0_中心線
  6
Continuous
 62
     3
100
AcDbLine
 10
195.029676937782
 20
143.2229274734553
 30
0.0
 11
193.3696769377821
 21
143.2229274734553
 31
0.0
  0
LINE
  5
42E
330
6B
100
AcDbEntity
  8
_1-0_中心線
  6
Continuous
 62
     3
100
AcDbLine
 10
195.029676937782
 20
141.5629274734553
 30
0.0
 11
195.029676937782
 21
143.2229274734553
 31
0.0
  0
LINE
  5
42F
330
6B
100
AcDbEntity
  8
_1-0_中心線
  6
Continuous
 62
     3
100
AcDbLine
 10
193.3696769377821
 20
141.5629274734553
 30
0.0
 11
195.029676937782
 21
141.5629274734553
 31
0.0
  0
LINE
  5
430
330
6B
100
AcDbEntity
  8
_1-0_中心線
  6
Continuous
 62
     3
100
AcDbLine
 10
193.3696769377821
 20
143.2229274734553
 30
0.0
 11
193.3696769377821
 21
141.5629274734553
 31
0.0
  0
LINE
  5
431
330
6B
100
AcDbEntity
  8
_1-0_中心線
  6
Continuous
 62
     4
100
AcDbLine
 10
195.029676937782
 20
143.2229274734553
 30
0.0
 11
193.3696769377821
 21
141.5629274734553
 31
0.0
  0
LINE
  5
432
330
6B
100
AcDbEntity
  8
_1-0_中心線
  6
Continuous
 62
     4
100
AcDbLine
 10
193.3696769377821
 20
143.2229274734553
 30
0.0
 11
195.029676937782
 21
141.5629274734553
 31
0.0
  0
LINE
  5
433
330
6B
100
AcDbEntity
  8
_1-0_中心線
  6
Continuous
 62
     3
100
AcDbLine
 10
239.4496769377821
 20
78.2517372419057
 30
0.0
 11
241.3496769377821
 21
78.2517372419057
 31
0.0
  0
LINE
  5
434
330
6B
100
AcDbEntity
  8
_1-0_中心線
  6
Continuous
 62
     3
100
AcDbLine
 10
241.3496769377821
 20
78.2517372419057
 30
0.0
 11
241.3496769377821
 21
80.15173724190573
 31
0.0
  0
LINE
  5
435
330
6B
100
AcDbEntity
  8
_1-0_中心線
  6
Continuous
 62
     3
100
AcDbLine
 10
241.3496769377821
 20
80.15173724190573
 30
0.0
 11
239.4496769377821
 21
80.15173724190573
 31
0.0
  0
LINE
  5
436
330
6B
100
AcDbEntity
  8
_1-0_中心線
  6
Continuous
 62
     3
100
AcDbLine
 10
239.4496769377821
 20
80.15173724190573
 30
0.0
 11
239.4496769377821
 21
78.2517372419057
 31
0.0
  0
LINE
  5
437
330
6B
100
AcDbEntity
  8
_1-0_中心線
  6
Continuous
 62
     3
100
AcDbLine
 10
241.2296769377821
 20
80.03173724190572
 30
0.0
 11
239.5696769377821
 21
80.03173724190572
 31
0.0
  0
LINE
  5
438
330
6B
100
AcDbEntity
  8
_1-0_中心線
  6
Continuous
 62
     3
100
AcDbLine
 10
241.2296769377821
 20
78.3717372419057
 30
0.0
 11
241.2296769377821
 21
80.03173724190572
 31
0.0
  0
LINE
  5
439
330
6B
100
AcDbEntity
  8
_1-0_中心線
  6
Continuous
 62
     3
100
AcDbLine
 10
239.5696769377821
 20
78.3717372419057
 30
0.0
 11
241.2296769377821
 21
78.3717372419057
 31
0.0
  0
LINE
  5
43A
330
6B
100
AcDbEntity
  8
_1-0_中心線
  6
Continuous
 62
     3
100
AcDbLine
 10
239.5696769377821
 20
80.03173724190572
 30
0.0
 11
239.5696769377821
 21
78.3717372419057
 31
0.0
  0
LINE
  5
43B
330
6B
100
AcDbEntity
  8
_1-0_中心線
  6
Continuous
 62
     4
100
AcDbLine
 10
241.2296769377821
 20
80.03173724190572
 30
0.0
 11
239.5696769377821
 21
78.37173724190572
 31
0.0
  0
LINE
  5
43C
330
6B
100
AcDbEntity
  8
_1-0_中心線
  6
Continuous
 62
     4
100
AcDbLine
 10
239.5696769377821
 20
80.03173724190572
 30
0.0
 11
241.2296769377821
 21
78.37173724190572
 31
0.0
  0
LINE
  5
43D
330
6B
100
AcDbEntity
  8
_1-0_中心線
  6
Continuous
 62
     3
100
AcDbLine
 10
177.2996769377821
 20
141.3517372419057
 30
0.0
 11
177.2996769377821
 21
80.15173724190573
 31
0.0
  0
LINE
  5
43E
330
6B
100
AcDbEntity
  8
_1-0_中心線
  6
Continuous
 62
     3
100
AcDbLine
 10
177.2996769377821
 20
141.3517372419057
 30
0.0
 11
177.2996769377821
 21
80.15173724190573
 31
0.0
  0
LINE
  5
43F
330
6B
100
AcDbEntity
  8
_1-6_文字
  6
Continuous
 62
     4
100
AcDbLine
 10
178.2496769377821
 20
80.15173724190573
 30
0.0
 11
221.5246119463988
 21
123.4266722505224
 31
0.0
  0
LINE
  5
440
330
6B
100
AcDbEntity
  8
_1-6_文字
  6
Continuous
 62
     4
100
AcDbLine
 10
178.2496769377821
 20
80.15173724190573
 30
0.0
 11
178.9996769377821
 21
81.45077534758238
 31
0.0
  0
LINE
  5
441
330
6B
100
AcDbEntity
  8
_1-6_文字
  6
Continuous
 62
     4
100
AcDbLine
 10
178.2496769377821
 20
80.15173724190573
 30
0.0
 11
179.5487150434587
 21
80.90173724190574
 31
0.0
  0
LINE
  5
442
330
6B
100
AcDbEntity
  8
_1-0_中心線
  6
Continuous
 62
     3
100
AcDbLine
 10
226.3496769377821
 20
120.99289295523
 30
0.0
 11
228.2496769377821
 21
120.99289295523
 31
0.0
  0
LINE
  5
443
330
6B
100
AcDbEntity
  8
_1-0_中心線
  6
Continuous
 62
     3
100
AcDbLine
 10
228.2496769377821
 20
120.99289295523
 30
0.0
 11
228.2496769377821
 21
122.89289295523
 31
0.0
  0
LINE
  5
444
330
6B
100
AcDbEntity
  8
_1-0_中心線
  6
Continuous
 62
     3
100
AcDbLine
 10
228.2496769377821
 20
122.89289295523
 30
0.0
 11
226.3496769377821
 21
122.89289295523
 31
0.0
  0
LINE
  5
445
330
6B
100
AcDbEntity
  8
_1-0_中心線
  6
Continuous
 62
     3
100
AcDbLine
 10
226.3496769377821
 20
122.89289295523
 30
0.0
 11
226.3496769377821
 21
120.99289295523
 31
0.0
  0
LINE
  5
446
330
6B
100
AcDbEntity
  8
_1-0_中心線
  6
Continuous
 62
     3
100
AcDbLine
 10
228.1296769377821
 20
122.77289295523
 30
0.0
 11
226.4696769377821
 21
122.77289295523
 31
0.0
  0
LINE
  5
447
330
6B
100
AcDbEntity
  8
_1-0_中心線
  6
Continuous
 62
     3
100
AcDbLine
 10
228.1296769377821
 20
121.11289295523
 30
0.0
 11
228.1296769377821
 21
122.77289295523
 31
0.0
  0
LINE
  5
448
330
6B
100
AcDbEntity
  8
_1-0_中心線
  6
Continuous
 62
     3
100
AcDbLine
 10
226.4696769377821
 20
121.11289295523
 30
0.0
 11
228.1296769377821
 21
121.11289295523
 31
0.0
  0
LINE
  5
449
330
6B
100
AcDbEntity
  8
_1-0_中心線
  6
Continuous
 62
     3
100
AcDbLine
 10
226.4696769377821
 20
122.77289295523
 30
0.0
 11
226.4696769377821
 21
121.11289295523
 31
0.0
  0
LINE
  5
44A
330
6B
100
AcDbEntity
  8
_1-0_中心線
  6
Continuous
 62
     4
100
AcDbLine
 10
228.1296769377821
 20
122.77289295523
 30
0.0
 11
226.4696769377821
 21
121.11289295523
 31
0.0
  0
LINE
  5
44B
330
6B
100
AcDbEntity
  8
_1-0_中心線
  6
Continuous
 62
     4
100
AcDbLine
 10
226.4696769377821
 20
122.77289295523
 30
0.0
 11
228.1296769377821
 21
121.11289295523
 31
0.0
  0
LINE
  5
44C
330
6B
100
AcDbEntity
  8
_1-6_文字
  6
Continuous
 62
     4
100
AcDbLine
 10
221.5246119463988
 20
123.4266722505224
 30
0.0
 11
220.2255738407221
 21
122.6766722505224
 31
0.0
  0
LINE
  5
44D
330
6B
100
AcDbEntity
  8
_1-6_文字
  6
Continuous
 62
     4
100
AcDbLine
 10
221.5246119463988
 20
123.4266722505224
 30
0.0
 11
220.7746119463988
 21
122.1276341448458
 31
0.0
  0
LINE
  5
44E
330
6B
100
AcDbEntity
  8
_1-6_文字
  6
Continuous
 62
     4
100
AcDbLine
 10
195.1079610693141
 20
142.5970285577271
 30
0.0
 11
197.9945953624786
 21
147.5968258163586
 31
0.0
  0
LINE
  5
44F
330
6B
100
AcDbEntity
  8
_1-6_文字
  6
Continuous
 62
     4
100
AcDbLine
 10
197.9945953624786
 20
147.5968258163586
 30
0.0
 11
234.9923070601197
 21
147.5968258163586
 31
0.0
  0
LINE
  5
450
330
6B
100
AcDbEntity
  8
_1-6_文字
  6
Continuous
 62
     4
100
AcDbLine
 10
195.1079610693141
 20
142.5970285577271
 30
0.0
 11
195.3534536835597
 21
143.5132194669747
 31
0.0
  0
LINE
  5
451
330
6B
100
AcDbEntity
  8
_1-6_文字
  6
Continuous
 62
     4
100
AcDbLine
 10
195.1079610693141
 20
142.5970285577271
 30
0.0
 11
195.7650694318061
 21
143.254136920219
 31
0.0
  0
LINE
  5
452
330
6B
100
AcDbEntity
  8
_1-6_文字
  6
Continuous
 62
     4
100
AcDbLine
 10
236.3938164841765
 20
102.8189379408777
 30
0.0
 11
236.6393090984221
 21
103.7351288501254
 31
0.0
  0
LINE
  5
453
330
6B
100
AcDbEntity
  8
_1-6_文字
  6
Continuous
 62
     4
100
AcDbLine
 10
236.3938164841765
 20
102.8189379408777
 30
0.0
 11
237.0509248466684
 21
103.4760463033697
 31
0.0
  0
LINE
  5
454
330
6B
100
AcDbEntity
  8
_1-6_文字
  6
Continuous
 62
     4
100
AcDbLine
 10
236.3938164841765
 20
102.8189379408777
 30
0.0
 11
239.2804507773409
 21
107.8187351995093
 31
0.0
  0
LINE
  5
455
330
6B
100
AcDbEntity
  8
_1-0_中心線
  6
Continuous
 62
     3
100
AcDbLine
 10
179.1996769377821
 20
141.3517372419057
 30
0.0
 11
179.1996769377821
 21
120.99289295523
 31
0.0
  0
LINE
  5
456
330
6B
100
AcDbEntity
  8
_1-0_中心線
  6
Continuous
 62
     3
100
AcDbLine
 10
179.1996769377821
 20
120.99289295523
 30
0.0
 11
179.1996769377821
 21
80.15173724190573
 31
0.0
  0
LINE
  5
457
330
6B
100
AcDbEntity
  8
_1-3_太線２
  6
Continuous
 62
     3
100
AcDbLine
 10
195.0120570381071
 20
122.89289295523
 30
0.0
 11
179.1996769377821
 21
122.89289295523
 31
0.0
  0
LINE
  5
458
330
6B
100
AcDbEntity
  8
_1-3_太線２
  6
Continuous
 62
     3
100
AcDbLine
 10
195.6919830996952
 20
120.99289295523
 30
0.0
 11
179.1996769377821
 21
120.99289295523
 31
0.0
  0
LINE
  5
459
330
6B
100
AcDbEntity
  8
_1-3_太線２
  6
Continuous
 62
     3
100
AcDbLine
 10
209.2225167195116
 20
122.89289295523
 30
0.0
 11
196.8766405678143
 21
122.89289295523
 31
0.0
  0
LINE
  5
45A
330
6B
100
AcDbEntity
  8
_1-3_太線２
  6
Continuous
 62
     3
100
AcDbLine
 10
210.478856263356
 20
120.99289295523
 30
0.0
 11
197.550831827192
 21
120.99289295523
 31
0.0
  0
LINE
  5
45B
330
6B
100
AcDbEntity
  8
_1-3_太線２
  6
Continuous
 62
     3
100
AcDbLine
 10
218.7176423136395
 20
122.89289295523
 30
0.0
 11
211.4828664589133
 21
122.89289295523
 31
0.0
  0
LINE
  5
45C
330
6B
100
AcDbEntity
  8
_1-3_太線２
  6
Continuous
 62
     3
100
AcDbLine
 10
220.3591290329363
 20
120.99289295523
 30
0.0
 11
212.6857208983916
 21
120.99289295523
 31
0.0
  0
LINE
  5
45D
330
6B
100
AcDbEntity
  8
_1-3_太線２
  6
Continuous
 62
     3
100
AcDbLine
 10
226.3496769377821
 20
122.89289295523
 30
0.0
 11
224.6695391552572
 21
122.89289295523
 31
0.0
  0
LINE
  5
45E
330
6B
100
AcDbEntity
  8
_1-3_太線２
  6
Continuous
 62
     3
100
AcDbLine
 10
222.0518870223128
 20
122.89289295523
 30
0.0
 11
221.2424345799694
 21
122.89289295523
 31
0.0
  0
LINE
  5
45F
330
6B
100
AcDbEntity
  8
_1-3_太線２
  6
Continuous
 62
     3
100
AcDbLine
 10
223.8286194441633
 20
120.99289295523
 30
0.0
 11
222.7985304630456
 21
120.99289295523
 31
0.0
  0
POINT
  5
460
330
6B
100
AcDbEntity
  8
_1-0_中心線
 62
     3
100
AcDbPoint
 10
178.2496769377821
 20
80.15173724190573
 30
0.0
  0
POINT
  5
461
330
6B
100
AcDbEntity
  8
_1-0_中心線
 62
     3
100
AcDbPoint
 10
221.5246119463988
 20
123.4266722505224
 30
0.0
  0
ARC
  5
462
330
6B
100
AcDbEntity
  8
_1-0_中心線
  6
Continuous
 62
     3
100
AcDbCircle
 10
178.2496769377821
 20
80.15173724190573
 30
0.0
 40
61.2
100
AcDbArc
 50
0.0
 51
94.22512116675385
  0
ARC
  5
463
330
6B
100
AcDbEntity
  8
_1-0_中心線
  6
Continuous
 62
     3
100
AcDbCircle
 10
178.2496769377821
 20
80.15173724190573
 30
0.0
 40
63.1
100
AcDbArc
 50
0.0
 51
94.09767807248568
  0
LINE
  5
464
330
6B
100
AcDbEntity
  8
_1-0_中心線
  6
Continuous
 62
     3
100
AcDbLine
 10
193.3696769377821
 20
143.2229274734553
 30
0.0
 11
173.7407388049794
 21
143.2229274734553
 31
0.0
  0
LINE
  5
465
330
6B
100
AcDbEntity
  8
_1-3_太線２
  6
Continuous
 62
     3
100
AcDbLine
 10
177.2996769377821
 20
122.89289295523
 30
0.0
 11
173.7407388049794
 21
122.89289295523
 31
0.0
  0
LINE
  5
466
330
6B
100
AcDbEntity
  8
_1-3_太線２
  6
Continuous
 62
     3
100
AcDbLine
 10
177.2996769377821
 20
120.99289295523
 30
0.0
 11
173.7407388049794
 21
120.99289295523
 31
0.0
  0
LINE
  5
467
330
6B
100
AcDbEntity
  8
_1-0_中心線
  6
Continuous
 62
     3
100
AcDbLine
 10
173.7407388049794
 20
80.15173724190573
 30
0.0
 11
241.3496769377821
 21
80.15173724190573
 31
0.0
  0
LINE
  5
468
330
6B
100
AcDbEntity
  8
_1-0_中心線
  6
Continuous
 62
     3
100
AcDbLine
 10
173.7407388049794
 20
78.2517372419057
 30
0.0
 11
241.3496769377821
 21
78.2517372419057
 31
0.0
  0
TEXT
  5
469
330
6B
100
AcDbEntity
  8
_1-6_文字
 62
     4
100
AcDbText
 10
239.838962474982
 20
108.535528148262
 30
0.0
 40
2.5
  1
角パイプ19×19×1.2　曲げ加工
100
AcDbText
  0
LINE
  5
46A
330
6B
100
AcDbEntity
  8
_1-6_文字
  6
Continuous
 62
     4
100
AcDbLine
 10
239.2804507773409
 20
107.8187351995093
 30
0.0
 11
276.278162474982
 21
107.8187351995093
 31
0.0
  0
TEXT
  5
46B
330
6B
100
AcDbEntity
  8
_1-6_文字
 62
     4
100
AcDbText
 10
189.970640393453
 20
98.350885431778
 30
0.0
 40
2.5
  1
R寸法
100
AcDbText
  0
TEXT
  5
46C
330
6B
100
AcDbEntity
  8
_1-6_文字
 62
     4
100
AcDbText
 10
198.5531070601197
 20
148.3136187651113
 30
0.0
 40
2.5
  1
角パイプ19×19×1.2　曲げ加工
100
AcDbText
  0
TEXT
  5
46D
330
6B
100
AcDbEntity
  8
_F-6_文字
 62
     4
100
AcDbText
 10
162.4666666666666
 20
19.04999999999998
 30
0.0
 40
3.0
  1
納まり図－Ｒ天井（角パイプ、ドーム天井）
100
AcDbText
  0
TEXT
  5
46E
330
6B
100
AcDbEntity
  8
_F-6_文字
 62
     4
100
AcDbText
 10
230.4666666666667
 20
11.04999999999996
 30
0.0
 40
2.0
  1
1/10
100
AcDbText
  0
TEXT
  5
474
330
6B
100
AcDbEntity
  8
0
  6
Continuous
100
AcDbText
 10
271.9666666666667
 20
7.549999999999982
 30
0.0
 40
2.0
  1
u20151101
 72
     2
 11
285.9666666666667
 21
9.549999999999982
 31
0.0
100
AcDbText
 73
     3
  0
ENDSEC
  0
SECTION
  2
OBJECTS
  0
DICTIONARY
  5
C
330
0
100
AcDbDictionary
281
     1
  3
ACAD_CIP_PREVIOUS_PRODUCT_INFO
350
471
  3
ACAD_COLOR
350
62
  3
ACAD_GROUP
350
D
  3
ACAD_LAYOUT
350
61
  3
ACAD_MATERIAL
350
10
  3
ACAD_MLEADERSTYLE
350
65
  3
ACAD_MLINESTYLE
350
5E
  3
ACAD_PLOTSETTINGS
350
60
  3
ACAD_PLOTSTYLENAME
350
E
  3
ACAD_SCALELIST
350
42
  3
ACAD_TABLESTYLE
350
63
  3
ACAD_VISUALSTYLE
350
29
  3
ACDB_RECOMPOSE_DATA
350
490
  3
AcDbVariableDictionary
350
485
  0
DICTIONARY
  5
475
330
54
100
AcDbDictionary
280
     1
281
     1
  3
ADSK_XREC_LAYER_RECONCILED
360
476
  0
DICTIONARY
  5
477
330
83
100
AcDbDictionary
280
     1
281
     1
  3
ADSK_XREC_LAYER_RECONCILED
360
478
  0
DICTIONARY
  5
479
330
84
100
AcDbDictionary
280
     1
281
     1
  3
ADSK_XREC_LAYER_RECONCILED
360
47A
  0
DICTIONARY
  5
47B
330
85
100
AcDbDictionary
280
     1
281
     1
  3
ADSK_XREC_LAYER_RECONCILED
360
47C
  0
DICTIONARY
  5
47D
330
86
100
AcDbDictionary
280
     1
281
     1
  3
ADSK_XREC_LAYER_RECONCILED
360
47E
  0
DICTIONARY
  5
47F
330
87
100
AcDbDictionary
280
     1
281
     1
  3
ADSK_XREC_LAYER_RECONCILED
360
480
  0
DICTIONARY
  5
481
330
88
100
AcDbDictionary
280
     1
281
     1
  3
ADSK_XREC_LAYER_RECONCILED
360
482
  0
DICTIONARY
  5
483
330
89
100
AcDbDictionary
280
     1
281
     1
  3
ADSK_XREC_LAYER_RECONCILED
360
484
  0
XRECORD
  5
471
102
{ACAD_REACTORS
330
C
102
}
330
C
100
AcDbXrecord
280
     1
300
ACDLT
300
2012
300
ACDLT_F_S
  0
DICTIONARY
  5
62
102
{ACAD_REACTORS
330
C
102
}
330
C
100
AcDbDictionary
281
     1
  0
DICTIONARY
  5
D
102
{ACAD_REACTORS
330
C
102
}
330
C
100
AcDbDictionary
281
     1
  0
DICTIONARY
  5
61
102
{ACAD_REACTORS
330
C
102
}
330
C
100
AcDbDictionary
281
     1
  3
Model
350
6E
  3
レイアウト1
350
6A
  0
DICTIONARY
  5
10
102
{ACAD_REACTORS
330
C
102
}
330
C
100
AcDbDictionary
281
     1
  3
ByBlock
350
19
  3
ByLayer
350
11
  3
Global
350
21
  0
DICTIONARY
  5
65
102
{ACAD_REACTORS
330
C
102
}
330
C
100
AcDbDictionary
281
     1
  3
Standard
350
66
  0
DICTIONARY
  5
5E
102
{ACAD_REACTORS
330
C
102
}
330
C
100
AcDbDictionary
281
     1
  3
Standard
350
5F
  0
DICTIONARY
  5
60
102
{ACAD_REACTORS
330
C
102
}
330
C
100
AcDbDictionary
281
     1
  0
ACDBDICTIONARYWDFLT
  5
E
102
{ACAD_REACTORS
330
C
102
}
330
C
100
AcDbDictionary
281
     1
  3
Normal
350
F
100
AcDbDictionaryWithDefault
340
F
  0
DICTIONARY
  5
42
102
{ACAD_REACTORS
330
C
102
}
330
C
100
AcDbDictionary
281
     1
  3
A0
350
43
  3
A1
350
44
  3
A2
350
45
  3
A3
350
46
  3
A4
350
47
  3
A5
350
48
  3
A6
350
49
  3
A7
350
4A
  3
A8
350
4B
  3
A9
350
4C
  3
B0
350
4D
  3
B1
350
4E
  3
B2
350
4F
  3
B3
350
50
  3
B4
350
51
  3
B5
350
52
  3
B6
350
53
  0
DICTIONARY
  5
63
102
{ACAD_REACTORS
330
C
102
}
330
C
100
AcDbDictionary
281
     1
  3
Standard
350
64
  0
DICTIONARY
  5
29
102
{ACAD_REACTORS
330
C
102
}
330
C
100
AcDbDictionary
281
     1
  3
2dWireframe
350
2F
  3
Basic
350
2E
  3
Brighten
350
35
  3
ColorChange
350
39
  3
Conceptual
350
32
  3
Dim
350
34
  3
EdgeColorOff
350
41
  3
Facepattern
350
38
  3
Flat
350
2A
  3
FlatWithEdges
350
2B
  3
Gouraud
350
2C
  3
GouraudWithEdges
350
2D
  3
Hidden
350
31
  3
JitterOff
350
3F
  3
Linepattern
350
37
  3
OverhangOff
350
40
  3
Realistic
350
33
  3
Shaded
350
3E
  3
Shaded with edges
350
3D
  3
Shades of Gray
350
3A
  3
Sketchy
350
3B
  3
Thicken
350
36
  3
Wireframe
350
30
  3
X-Ray
350
3C
  0
XRECORD
  5
490
102
{ACAD_REACTORS
330
C
102
}
330
C
100
AcDbXrecord
280
     1
 90
        1
330
64
  0
DICTIONARY
  5
485
102
{ACAD_REACTORS
330
C
102
}
330
C
100
AcDbDictionary
281
     1
  3
CANNOSCALE
350
489
  3
CMLEADERSTYLE
350
487
  3
CTABLESTYLE
350
486
  3
LAYEREVAL
350
48B
  3
LAYERNOTIFY
350
48C
  3
LIGHTINGUNITS
350
48A
  3
MSLTSCALE
350
488
  0
XRECORD
  5
476
102
{ACAD_REACTORS
330
475
102
}
330
475
100
AcDbXrecord
280
     1
290
     1
  0
XRECORD
  5
478
102
{ACAD_REACTORS
330
477
102
}
330
477
100
AcDbXrecord
280
     1
290
     1
  0
XRECORD
  5
47A
102
{ACAD_REACTORS
330
479
102
}
330
479
100
AcDbXrecord
280
     1
290
     1
  0
XRECORD
  5
47C
102
{ACAD_REACTORS
330
47B
102
}
330
47B
100
AcDbXrecord
280
     1
290
     1
  0
XRECORD
  5
47E
102
{ACAD_REACTORS
330
47D
102
}
330
47D
100
AcDbXrecord
280
     1
290
     1
  0
XRECORD
  5
480
102
{ACAD_REACTORS
330
47F
102
}
330
47F
100
AcDbXrecord
280
     1
290
     1
  0
XRECORD
  5
482
102
{ACAD_REACTORS
330
481
102
}
330
481
100
AcDbXrecord
280
     1
290
     1
  0
XRECORD
  5
484
102
{ACAD_REACTORS
330
483
102
}
330
483
100
AcDbXrecord
280
     1
290
     1
  0
LAYOUT
  5
6E
102
{ACAD_REACTORS
330
61
102
}
330
61
100
AcDbPlotSettings
  1

  2
DWG To PDF.pc3
  4

  6

 40
0.0
 41
0.0
 42
0.0
 43
0.0
 44
0.0
 45
0.0
 46
0.0
 47
0.0
 48
0.0
 49
0.0
140
0.0
141
0.0
142
1.0
143
1.0
 70
  1712
 72
     0
 73
     0
 74
     0
  7

 75
     0
147
1.0
 76
     0
 77
     2
 78
   300
148
0.0
149
0.0
100
AcDbLayout
  1
Model
 70
     1
 71
     0
 10
0.0
 20
0.0
 11
12.0
 21
9.0
 12
0.0
 22
0.0
 32
0.0
 14
0.0
 24
0.0
 34
0.0
 15
0.0
 25
0.0
 35
0.0
146
0.0
 13
0.0
 23
0.0
 33
0.0
 16
1.0
 26
0.0
 36
0.0
 17
0.0
 27
1.0
 37
0.0
 76
     0
330
6B
331
8C
  0
LAYOUT
  5
6A
102
{ACAD_REACTORS
330
61
102
}
330
61
100
AcDbPlotSettings
  1

  2
DWG To PDF.pc3
  4

  6

 40
0.0
 41
0.0
 42
0.0
 43
0.0
 44
0.0
 45
0.0
 46
0.0
 47
0.0
 48
0.0
 49
0.0
140
0.0
141
0.0
142
1.0
143
1.0
 70
   688
 72
     0
 73
     0
 74
     5
  7

 75
    16
147
1.0
 76
     0
 77
     2
 78
   300
148
0.0
149
0.0
100
AcDbLayout
  1
レイアウト1
 70
     1
 71
     1
 10
0.0
 20
0.0
 11
12.0
 21
9.0
 12
0.0
 22
0.0
 32
0.0
 14
1.000000000000000E+20
 24
1.000000000000000E+20
 34
1.000000000000000E+20
 15
-1.000000000000000E+20
 25
-1.000000000000000E+20
 35
-1.000000000000000E+20
146
0.0
 13
0.0
 23
0.0
 33
0.0
 16
1.0
 26
0.0
 36
0.0
 17
0.0
 27
1.0
 37
0.0
 76
     0
330
67
  0
MATERIAL
  5
19
102
{ACAD_XDICTIONARY
360
1A
102
}
102
{ACAD_REACTORS
330
10
102
}
330
10
100
AcDbMaterial
  1
ByBlock
 72
     0
 43
0.0208333333333333
 43
0.0
 43
0.0
 43
0.0
 43
0.0
 43
0.0208333333333333
 43
0.0
 43
0.0
 43
0.0
 43
0.0
 43
1.0
 43
0.0
 43
0.0
 43
0.0
 43
0.0
 43
1.0
 77
     0
 47
0.0208333333333333
 47
0.0
 47
0.0
 47
0.0
 47
0.0
 47
0.0208333333333333
 47
0.0
 47
0.0
 47
0.0
 47
0.0
 47
1.0
 47
0.0
 47
0.0
 47
0.0
 47
0.0
 47
1.0
171
     0
 49
0.0208333333333333
 49
0.0
 49
0.0
 49
0.0
 49
0.0
 49
0.0208333333333333
 49
0.0
 49
0.0
 49
0.0
 49
0.0
 49
1.0
 49
0.0
 49
0.0
 49
0.0
 49
0.0
 49
1.0
175
     0
142
0.0208333333333333
142
0.0
142
0.0
142
0.0
142
0.0
142
0.0208333333333333
142
0.0
142
0.0
142
0.0
142
0.0
142
1.0
142
0.0
142
0.0
142
0.0
142
0.0
142
1.0
179
     0
144
0.0208333333333333
144
0.0
144
0.0
144
0.0
144
0.0
144
0.0208333333333333
144
0.0
144
0.0
144
0.0
144
0.0
144
1.0
144
0.0
144
0.0
144
0.0
144
0.0
144
1.0
147
0.0208333333333333
147
0.0
147
0.0
147
0.0
147
0.0
147
0.0208333333333333
147
0.0
147
0.0
147
0.0
147
0.0
147
1.0
147
0.0
147
0.0
147
0.0
147
0.0
147
1.0
  0
MATERIAL
  5
11
102
{ACAD_XDICTIONARY
360
12
102
}
102
{ACAD_REACTORS
330
10
102
}
330
10
100
AcDbMaterial
  1
ByLayer
 72
     0
 43
0.0208333333333333
 43
0.0
 43
0.0
 43
0.0
 43
0.0
 43
0.0208333333333333
 43
0.0
 43
0.0
 43
0.0
 43
0.0
 43
1.0
 43
0.0
 43
0.0
 43
0.0
 43
0.0
 43
1.0
 77
     0
 47
0.0208333333333333
 47
0.0
 47
0.0
 47
0.0
 47
0.0
 47
0.0208333333333333
 47
0.0
 47
0.0
 47
0.0
 47
0.0
 47
1.0
 47
0.0
 47
0.0
 47
0.0
 47
0.0
 47
1.0
171
     0
 49
0.0208333333333333
 49
0.0
 49
0.0
 49
0.0
 49
0.0
 49
0.0208333333333333
 49
0.0
 49
0.0
 49
0.0
 49
0.0
 49
1.0
 49
0.0
 49
0.0
 49
0.0
 49
0.0
 49
1.0
175
     0
142
0.0208333333333333
142
0.0
142
0.0
142
0.0
142
0.0
142
0.0208333333333333
142
0.0
142
0.0
142
0.0
142
0.0
142
1.0
142
0.0
142
0.0
142
0.0
142
0.0
142
1.0
179
     0
144
0.0208333333333333
144
0.0
144
0.0
144
0.0
144
0.0
144
0.0208333333333333
144
0.0
144
0.0
144
0.0
144
0.0
144
1.0
144
0.0
144
0.0
144
0.0
144
0.0
144
1.0
147
0.0208333333333333
147
0.0
147
0.0
147
0.0
147
0.0
147
0.0208333333333333
147
0.0
147
0.0
147
0.0
147
0.0
147
1.0
147
0.0
147
0.0
147
0.0
147
0.0
147
1.0
  0
MATERIAL
  5
21
102
{ACAD_XDICTIONARY
360
22
102
}
102
{ACAD_REACTORS
330
10
102
}
330
10
100
AcDbMaterial
  1
Global
 72
     0
 43
0.0208333333333333
 43
0.0
 43
0.0
 43
0.0
 43
0.0
 43
0.0208333333333333
 43
0.0
 43
0.0
 43
0.0
 43
0.0
 43
1.0
 43
0.0
 43
0.0
 43
0.0
 43
0.0
 43
1.0
 77
     0
 47
0.0208333333333333
 47
0.0
 47
0.0
 47
0.0
 47
0.0
 47
0.0208333333333333
 47
0.0
 47
0.0
 47
0.0
 47
0.0
 47
1.0
 47
0.0
 47
0.0
 47
0.0
 47
0.0
 47
1.0
171
     0
 49
0.0208333333333333
 49
0.0
 49
0.0
 49
0.0
 49
0.0
 49
0.0208333333333333
 49
0.0
 49
0.0
 49
0.0
 49
0.0
 49
1.0
 49
0.0
 49
0.0
 49
0.0
 49
0.0
 49
1.0
175
     0
142
0.0208333333333333
142
0.0
142
0.0
142
0.0
142
0.0
142
0.0208333333333333
142
0.0
142
0.0
142
0.0
142
0.0
142
1.0
142
0.0
142
0.0
142
0.0
142
0.0
142
1.0
179
     0
144
0.0208333333333333
144
0.0
144
0.0
144
0.0
144
0.0
144
0.0208333333333333
144
0.0
144
0.0
144
0.0
144
0.0
144
1.0
144
0.0
144
0.0
144
0.0
144
0.0
144
1.0
147
0.0208333333333333
147
0.0
147
0.0
147
0.0
147
0.0
147
0.0208333333333333
147
0.0
147
0.0
147
0.0
147
0.0
147
1.0
147
0.0
147
0.0
147
0.0
147
0.0
147
1.0
  0
MLEADERSTYLE
  5
66
102
{ACAD_REACTORS
330
65
102
}
330
65
100
AcDbMLeaderStyle
179
     2
170
     2
171
     1
172
     0
 90
        2
 40
0.0
 41
0.0
173
     1
 91
-1056964608
340
5A
 92
       -2
290
     1
 42
0.09
291
     1
 43
0.36
  3
Standard
 44
0.18
300

342
55
174
     1
178
     6
175
     1
176
     0
 93
-1056964608
 45
0.18
292
     0
297
     0
 46
0.18
 94
-1056964608
 47
1.0
 49
1.0
140
1.0
293
     1
141
0.0
294
     1
177
     0
142
1.0
295
     0
296
     0
143
0.125
271
     0
272
     9
273
     9
  0
MLINESTYLE
  5
5F
102
{ACAD_REACTORS
330
5E
102
}
330
5E
100
AcDbMlineStyle
  2
STANDARD
 70
     0
  3

 62
   256
 51
90.0
 52
90.0
 71
     2
 49
0.5
 62
   256
  6
BYLAYER
 49
-0.5
 62
   256
  6
BYLAYER
  0
ACDBPLACEHOLDER
  5
F
102
{ACAD_REACTORS
330
E
102
}
330
E
  0
SCALE
  5
43
102
{ACAD_REACTORS
330
42
102
}
330
42
100
AcDbScale
 70
     0
300
1:1
140
1.0
141
1.0
290
     1
  0
SCALE
  5
44
102
{ACAD_REACTORS
330
42
102
}
330
42
100
AcDbScale
 70
     0
300
1/128" = 1'-0"
140
0.0078125
141
12.0
290
     0
  0
SCALE
  5
45
102
{ACAD_REACTORS
330
42
102
}
330
42
100
AcDbScale
 70
     0
300
1/64" = 1'-0"
140
0.015625
141
12.0
290
     0
  0
SCALE
  5
46
102
{ACAD_REACTORS
330
42
102
}
330
42
100
AcDbScale
 70
     0
300
1/32" = 1'-0"
140
0.03125
141
12.0
290
     0
  0
SCALE
  5
47
102
{ACAD_REACTORS
330
42
102
}
330
42
100
AcDbScale
 70
     0
300
1/16" = 1'-0"
140
0.0625
141
12.0
290
     0
  0
SCALE
  5
48
102
{ACAD_REACTORS
330
42
102
}
330
42
100
AcDbScale
 70
     0
300
3/32" = 1'-0"
140
0.09375
141
12.0
290
     0
  0
SCALE
  5
49
102
{ACAD_REACTORS
330
42
102
}
330
42
100
AcDbScale
 70
     0
300
1/8" = 1'-0"
140
0.125
141
12.0
290
     0
  0
SCALE
  5
4A
102
{ACAD_REACTORS
330
42
102
}
330
42
100
AcDbScale
 70
     0
300
3/16" = 1'-0"
140
0.1875
141
12.0
290
     0
  0
SCALE
  5
4B
102
{ACAD_REACTORS
330
42
102
}
330
42
100
AcDbScale
 70
     0
300
1/4" = 1'-0"
140
0.25
141
12.0
290
     0
  0
SCALE
  5
4C
102
{ACAD_REACTORS
330
42
102
}
330
42
100
AcDbScale
 70
     0
300
3/8" = 1'-0"
140
0.375
141
12.0
290
     0
  0
SCALE
  5
4D
102
{ACAD_REACTORS
330
42
102
}
330
42
100
AcDbScale
 70
     0
300
1/2" = 1'-0"
140
0.5
141
12.0
290
     0
  0
SCALE
  5
4E
102
{ACAD_REACTORS
330
42
102
}
330
42
100
AcDbScale
 70
     0
300
3/4" = 1'-0"
140
0.75
141
12.0
290
     0
  0
SCALE
  5
4F
102
{ACAD_REACTORS
330
42
102
}
330
42
100
AcDbScale
 70
     0
300
1" = 1'-0"
140
1.0
141
12.0
290
     0
  0
SCALE
  5
50
102
{ACAD_REACTORS
330
42
102
}
330
42
100
AcDbScale
 70
     0
300
1-1/2" = 1'-0"
140
1.5
141
12.0
290
     0
  0
SCALE
  5
51
102
{ACAD_REACTORS
330
42
102
}
330
42
100
AcDbScale
 70
     0
300
3" = 1'-0"
140
3.0
141
12.0
290
     0
  0
SCALE
  5
52
102
{ACAD_REACTORS
330
42
102
}
330
42
100
AcDbScale
 70
     0
300
6" = 1'-0"
140
6.0
141
12.0
290
     0
  0
SCALE
  5
53
102
{ACAD_REACTORS
330
42
102
}
330
42
100
AcDbScale
 70
     0
300
1'-0" = 1'-0"
140
12.0
141
12.0
290
     0
  0
TABLESTYLE
  5
64
102
{ACAD_XDICTIONARY
360
48E
102
}
102
{ACAD_REACTORS
330
63
102
}
330
63
100
AcDbTableStyle
280
     0
  3
Standard
 70
     0
 71
     0
 40
0.06
 41
0.06
280
     0
281
     0
  7
STANDARD
140
0.18
170
     2
 62
     0
 63
     7
283
     0
 90
      512
 91
        0
  1

274
    -2
284
     1
 64
     0
275
    -2
285
     1
 65
     0
276
    -2
286
     1
 66
     0
277
    -2
287
     1
 67
     0
278
    -2
288
     1
 68
     0
279
    -2
289
     1
 69
     0
  7
STANDARD
140
0.25
170
     5
 62
     0
 63
     7
283
     0
 90
      512
 91
        0
  1

274
    -2
284
     1
 64
     0
275
    -2
285
     1
 65
     0
276
    -2
286
     1
 66
     0
277
    -2
287
     1
 67
     0
278
    -2
288
     1
 68
     0
279
    -2
289
     1
 69
     0
  7
STANDARD
140
0.18
170
     5
 62
     0
 63
     7
283
     0
 90
      512
 91
        0
  1

274
    -2
284
     1
 64
     0
275
    -2
285
     1
 65
     0
276
    -2
286
     1
 66
     0
277
    -2
287
     1
 67
     0
278
    -2
288
     1
 68
     0
279
    -2
289
     1
 69
     0
  0
VISUALSTYLE
  5
2F
102
{ACAD_REACTORS
330
29
102
}
330
29
100
AcDbVisualStyle
  2
2dWireframe
 70
     4
177
     2
291
     0
 71
     0
176
     1
 72
     2
176
     1
 73
     0
176
     1
 90
        0
176
     1
 40
0.6
176
     1
 41
30.0
176
     1
 63
     7
421
 16777215
176
     1
 74
     1
176
     1
 91
        4
176
     1
 64
     7
176
     1
 65
   257
176
     1
 75
     1
176
     1
175
     1
176
     1
 42
1.0
176
     1
 92
        0
176
     1
 66
   257
176
     1
 43
1.0
176
     1
 76
     1
176
     1
 77
     6
176
     1
 78
     2
176
     1
 67
     7
176
     1
 79
     5
176
     1
170
     0
176
     1
171
     0
176
     1
290
     0
176
     1
 93
        1
176
     1
 44
0.0
176
     1
173
     0
176
     1
  0
VISUALSTYLE
  5
2E
102
{ACAD_REACTORS
330
29
102
}
330
29
100
AcDbVisualStyle
  2
Basic
 70
     7
177
     2
291
     1
 71
     1
176
     1
 72
     0
176
     1
 73
     1
176
     1
 90
        0
176
     1
 40
0.6
176
     1
 41
30.0
176
     1
 63
     7
421
 16777215
176
     1
 74
     0
176
     1
 91
        4
176
     1
 64
     7
176
     1
 65
   257
176
     1
 75
     1
176
     1
175
     1
176
     1
 42
1.0
176
     1
 92
        8
176
     1
 66
     7
176
     1
 43
1.0
176
     1
 76
     1
176
     1
 77
     6
176
     1
 78
     2
176
     1
 67
     7
176
     1
 79
     5
176
     1
170
     0
176
     1
171
     0
176
     1
290
     0
176
     1
 93
        1
176
     1
 44
0.0
176
     1
173
     0
176
     1
  0
VISUALSTYLE
  5
35
102
{ACAD_REACTORS
330
29
102
}
330
29
100
AcDbVisualStyle
  2
Brighten
 70
    12
177
     2
291
     1
 71
     2
176
     1
 72
     2
176
     1
 73
     0
176
     1
 90
        0
176
     1
 40
0.6
176
     1
 41
30.0
176
     1
 63
     7
421
 16777215
176
     1
 74
     1
176
     1
 91
        4
176
     1
 64
     7
176
     1
 65
   257
176
     1
 75
     1
176
     1
175
     1
176
     1
 42
1.0
176
     1
 92
        8
176
     1
 66
     7
176
     1
 43
1.0
176
     1
 76
     1
176
     1
 77
     6
176
     1
 78
     2
176
     1
 67
     7
176
     1
 79
     5
176
     1
170
     0
176
     1
171
     0
176
     1
290
     0
176
     1
 93
        1
176
     1
 44
50.0
176
     1
173
     0
176
     1
  0
VISUALSTYLE
  5
39
102
{ACAD_REACTORS
330
29
102
}
330
29
100
AcDbVisualStyle
  2
ColorChange
 70
    16
177
     2
291
     1
 71
     2
176
     1
 72
     2
176
     1
 73
     3
176
     1
 90
        0
176
     1
 40
0.6
176
     1
 41
30.0
176
     1
 63
     8
421
  8421504
176
     1
 74
     1
176
     1
 91
        4
176
     1
 64
     7
176
     1
 65
   257
176
     1
 75
     1
176
     1
175
     1
176
     1
 42
1.0
176
     1
 92
        8
176
     1
 66
     8
424
  8421504
176
     1
 43
1.0
176
     1
 76
     1
176
     1
 77
     6
176
     1
 78
     2
176
     1
 67
     7
176
     1
 79
     5
176
     1
170
     0
176
     1
171
     0
176
     1
290
     0
176
     1
 93
        1
176
     1
 44
0.0
176
     1
173
     0
176
     1
  0
VISUALSTYLE
  5
32
102
{ACAD_REACTORS
330
29
102
}
330
29
100
AcDbVisualStyle
  2
Conceptual
 70
     9
177
     2
291
     0
 71
     3
176
     1
 72
     2
176
     1
 73
     0
176
     1
 90
        0
176
     1
 40
0.6
176
     1
 41
30.0
176
     1
 63
     7
421
 16777215
176
     1
 74
     2
176
     1
 91
        2
176
     1
 64
     7
176
     1
 65
   257
176
     1
 75
     1
176
     1
175
     1
176
     1
 42
179.0
176
     1
 92
        8
176
     1
 66
     7
176
     1
 43
1.0
176
     1
 76
     1
176
     1
 77
     6
176
     1
 78
     2
176
     1
 67
     7
176
     1
 79
     3
176
     1
170
     0
176
     1
171
     0
176
     1
290
     0
176
     1
 93
        1
176
     1
 44
0.0
176
     1
173
     0
176
     1
  0
VISUALSTYLE
  5
34
102
{ACAD_REACTORS
330
29
102
}
330
29
100
AcDbVisualStyle
  2
Dim
 70
    11
177
     2
291
     1
 71
     2
176
     1
 72
     2
176
     1
 73
     0
176
     1
 90
        0
176
     1
 40
0.6
176
     1
 41
30.0
176
     1
 63
     7
421
 16777215
176
     1
 74
     1
176
     1
 91
        4
176
     1
 64
     7
176
     1
 65
   257
176
     1
 75
     1
176
     1
175
     1
176
     1
 42
1.0
176
     1
 92
        8
176
     1
 66
     7
176
     1
 43
1.0
176
     1
 76
     1
176
     1
 77
     6
176
     1
 78
     2
176
     1
 67
     7
176
     1
 79
     5
176
     1
170
     0
176
     1
171
     0
176
     1
290
     0
176
     1
 93
        1
176
     1
 44
-50.0
176
     1
173
     0
176
     1
  0
VISUALSTYLE
  5
41
102
{ACAD_REACTORS
330
29
102
}
330
29
100
AcDbVisualStyle
  2
EdgeColorOff
 70
    22
177
     2
291
     1
 71
     2
176
     0
 72
     2
176
     0
 73
     0
176
     0
 90
        0
176
     0
 40
0.6
176
     0
 41
30.0
176
     0
 63
     7
421
 16777215
176
     0
 74
     1
176
     0
 91
        4
176
     0
 64
     7
176
     0
 65
   257
176
     0
 75
     1
176
     0
175
     1
176
     0
 42
1.0
176
     0
 92
        8
176
     2
 66
     7
176
     0
 43
1.0
176
     0
 76
     1
176
     0
 77
     6
176
     0
 78
     2
176
     0
 67
     7
176
     0
 79
     5
176
     0
170
     0
176
     0
171
     0
176
     0
290
     0
176
     0
 93
        1
176
     0
 44
0.0
176
     0
173
     0
176
     0
  0
VISUALSTYLE
  5
38
102
{ACAD_REACTORS
330
29
102
}
330
29
100
AcDbVisualStyle
  2
Facepattern
 70
    15
177
     2
291
     1
 71
     2
176
     1
 72
     2
176
     1
 73
     0
176
     1
 90
        0
176
     1
 40
0.6
176
     1
 41
30.0
176
     1
 63
     7
421
 16777215
176
     1
 74
     1
176
     1
 91
        4
176
     1
 64
     7
176
     1
 65
   257
176
     1
 75
     1
176
     1
175
     1
176
     1
 42
1.0
176
     1
 92
        8
176
     1
 66
     7
176
     1
 43
1.0
176
     1
 76
     1
176
     1
 77
     6
176
     1
 78
     2
176
     1
 67
     7
176
     1
 79
     5
176
     1
170
     0
176
     1
171
     0
176
     1
290
     0
176
     1
 93
        1
176
     1
 44
0.0
176
     1
173
     0
176
     1
  0
VISUALSTYLE
  5
2A
102
{ACAD_REACTORS
330
29
102
}
330
29
100
AcDbVisualStyle
  2
Flat
 70
     0
177
     2
291
     1
 71
     2
176
     1
 72
     1
176
     1
 73
     1
176
     1
 90
        2
176
     1
 40
0.6
176
     1
 41
30.0
176
     1
 63
     7
421
 16777215
176
     1
 74
     0
176
     1
 91
        0
176
     1
 64
     7
176
     1
 65
   257
176
     1
 75
     1
176
     1
175
     1
176
     1
 42
1.0
176
     1
 92
        8
176
     1
 66
     7
176
     1
 43
1.0
176
     1
 76
     1
176
     1
 77
     6
176
     1
 78
     2
176
     1
 67
     7
176
     1
 79
     5
176
     1
170
     0
176
     1
171
     0
176
     1
290
     0
176
     1
 93
       13
176
     1
 44
0.0
176
     1
173
     0
176
     1
  0
VISUALSTYLE
  5
2B
102
{ACAD_REACTORS
330
29
102
}
330
29
100
AcDbVisualStyle
  2
FlatWithEdges
 70
     1
177
     2
291
     1
 71
     2
176
     1
 72
     1
176
     1
 73
     1
176
     1
 90
        2
176
     1
 40
0.6
176
     1
 41
30.0
176
     1
 63
     7
421
 16777215
176
     1
 74
     1
176
     1
 91
        0
176
     1
 64
     7
176
     1
 65
   257
176
     1
 75
     1
176
     1
175
     1
176
     1
 42
1.0
176
     1
 92
        0
176
     1
 66
   257
176
     1
 43
1.0
176
     1
 76
     1
176
     1
 77
     6
176
     1
 78
     2
176
     1
 67
     7
176
     1
 79
     5
176
     1
170
     0
176
     1
171
     0
176
     1
290
     0
176
     1
 93
       13
176
     1
 44
0.0
176
     1
173
     0
176
     1
  0
VISUALSTYLE
  5
2C
102
{ACAD_REACTORS
330
29
102
}
330
29
100
AcDbVisualStyle
  2
Gouraud
 70
     2
177
     2
291
     1
 71
     2
176
     1
 72
     2
176
     1
 73
     1
176
     1
 90
        2
176
     1
 40
0.6
176
     1
 41
30.0
176
     1
 63
     7
421
 16777215
176
     1
 74
     0
176
     1
 91
        0
176
     1
 64
     7
176
     1
 65
   257
176
     1
 75
     1
176
     1
175
     1
176
     1
 42
1.0
176
     1
 92
        0
176
     1
 66
     7
176
     1
 43
1.0
176
     1
 76
     1
176
     1
 77
     6
176
     1
 78
     2
176
     1
 67
     7
176
     1
 79
     5
176
     1
170
     0
176
     1
171
     0
176
     1
290
     0
176
     1
 93
       13
176
     1
 44
0.0
176
     1
173
     0
176
     1
  0
VISUALSTYLE
  5
2D
102
{ACAD_REACTORS
330
29
102
}
330
29
100
AcDbVisualStyle
  2
GouraudWithEdges
 70
     3
177
     2
291
     1
 71
     2
176
     1
 72
     2
176
     1
 73
     1
176
     1
 90
        2
176
     1
 40
0.6
176
     1
 41
30.0
176
     1
 63
     7
421
 16777215
176
     1
 74
     1
176
     1
 91
        0
176
     1
 64
     7
176
     1
 65
   257
176
     1
 75
     1
176
     1
175
     1
176
     1
 42
1.0
176
     1
 92
        0
176
     1
 66
   257
176
     1
 43
1.0
176
     1
 76
     1
176
     1
 77
     6
176
     1
 78
     2
176
     1
 67
     7
176
     1
 79
     5
176
     1
170
     0
176
     1
171
     0
176
     1
290
     0
176
     1
 93
       13
176
     1
 44
0.0
176
     1
173
     0
176
     1
  0
VISUALSTYLE
  5
31
102
{ACAD_REACTORS
330
29
102
}
330
29
100
AcDbVisualStyle
  2
Hidden
 70
     6
177
     2
291
     0
 71
     1
176
     1
 72
     2
176
     1
 73
     2
176
     1
 90
        0
176
     1
 40
0.6
176
     1
 41
30.0
176
     1
 63
     7
421
 16777215
176
     1
 74
     2
176
     1
 91
        2
176
     1
 64
     7
176
     1
 65
   257
176
     1
 75
     2
176
     1
175
     1
176
     1
 42
40.0
176
     1
 92
        0
176
     1
 66
   257
176
     1
 43
1.0
176
     1
 76
     1
176
     1
 77
     6
176
     1
 78
     2
176
     1
 67
     7
176
     1
 79
     3
176
     1
170
     0
176
     1
171
     0
176
     1
290
     0
176
     1
 93
        1
176
     1
 44
0.0
176
     1
173
     0
176
     1
  0
VISUALSTYLE
  5
3F
102
{ACAD_REACTORS
330
29
102
}
330
29
100
AcDbVisualStyle
  2
JitterOff
 70
    20
177
     2
291
     1
 71
     2
176
     0
 72
     2
176
     0
 73
     0
176
     0
 90
        0
176
     0
 40
0.6
176
     0
 41
30.0
176
     0
 63
     7
421
 16777215
176
     0
 74
     1
176
     0
 91
        4
176
     0
 64
     7
176
     0
 65
   257
176
     0
 75
     1
176
     0
175
     1
176
     0
 42
1.0
176
     0
 92
       10
176
     2
 66
     7
176
     0
 43
1.0
176
     0
 76
     1
176
     0
 77
     6
176
     0
 78
     2
176
     0
 67
     7
176
     0
 79
     5
176
     0
170
     0
176
     0
171
     0
176
     0
290
     0
176
     0
 93
        1
176
     0
 44
0.0
176
     0
173
     0
176
     0
  0
VISUALSTYLE
  5
37
102
{ACAD_REACTORS
330
29
102
}
330
29
100
AcDbVisualStyle
  2
Linepattern
 70
    14
177
     2
291
     1
 71
     2
176
     1
 72
     2
176
     1
 73
     0
176
     1
 90
        0
176
     1
 40
0.6
176
     1
 41
30.0
176
     1
 63
     7
421
 16777215
176
     1
 74
     1
176
     1
 91
        4
176
     1
 64
     7
176
     1
 65
   257
176
     1
 75
     7
176
     1
175
     7
176
     1
 42
1.0
176
     1
 92
        8
176
     1
 66
     7
176
     1
 43
1.0
176
     1
 76
     1
176
     1
 77
     6
176
     1
 78
     2
176
     1
 67
     7
176
     1
 79
     5
176
     1
170
     0
176
     1
171
     0
176
     1
290
     0
176
     1
 93
        1
176
     1
 44
0.0
176
     1
173
     0
176
     1
  0
VISUALSTYLE
  5
40
102
{ACAD_REACTORS
330
29
102
}
330
29
100
AcDbVisualStyle
  2
OverhangOff
 70
    21
177
     2
291
     1
 71
     2
176
     0
 72
     2
176
     0
 73
     0
176
     0
 90
        0
176
     0
 40
0.6
176
     0
 41
30.0
176
     0
 63
     7
421
 16777215
176
     0
 74
     1
176
     0
 91
        4
176
     0
 64
     7
176
     0
 65
   257
176
     0
 75
     1
176
     0
175
     1
176
     0
 42
1.0
176
     0
 92
        9
176
     2
 66
     7
176
     0
 43
1.0
176
     0
 76
     1
176
     0
 77
     6
176
     0
 78
     2
176
     0
 67
     7
176
     0
 79
     5
176
     0
170
     0
176
     0
171
     0
176
     0
290
     0
176
     0
 93
        1
176
     0
 44
0.0
176
     0
173
     0
176
     0
  0
VISUALSTYLE
  5
33
102
{ACAD_REACTORS
330
29
102
}
330
29
100
AcDbVisualStyle
  2
Realistic
 70
     8
177
     2
291
     0
 71
     2
176
     1
 72
     3
176
     1
 73
     0
176
     1
 90
        2
176
     1
 40
0.6
176
     1
 41
30.0
176
     1
 63
     7
421
 16777215
176
     1
 74
     0
176
     1
 91
        0
176
     1
 64
     7
176
     1
 65
   257
176
     1
 75
     1
176
     1
175
     1
176
     1
 42
1.0
176
     1
 92
        8
176
     1
 66
   257
176
     1
 43
1.0
176
     1
 76
     1
176
     1
 77
     6
176
     1
 78
     2
176
     1
 67
     7
176
     1
 79
     3
176
     1
170
     0
176
     1
171
     0
176
     1
290
     0
176
     1
 93
       13
176
     1
 44
0.0
176
     1
173
     0
176
     1
  0
VISUALSTYLE
  5
3E
102
{ACAD_REACTORS
330
29
102
}
330
29
100
AcDbVisualStyle
  2
Shaded
 70
    27
177
     2
291
     0
 71
     2
176
     1
 72
     2
176
     1
 73
     1
176
     1
 90
        2
176
     1
 40
0.6
176
     1
 41
30.0
176
     1
 63
     7
421
 16777215
176
     1
 74
     0
176
     1
 91
        4
176
     1
 64
     7
176
     1
 65
   257
176
     1
 75
     1
176
     1
175
     1
176
     1
 42
1.0
176
     1
 92
        8
176
     1
 66
   257
176
     1
 43
1.0
176
     1
 76
     1
176
     1
 77
     6
176
     1
 78
     2
176
     1
 67
     8
425
  7895160
176
     1
 79
     3
176
     1
170
     0
176
     1
171
     0
176
     1
290
     0
176
     1
 93
        5
176
     1
 44
0.0
176
     1
173
     0
176
     1
  0
VISUALSTYLE
  5
3D
102
{ACAD_REACTORS
330
29
102
}
330
29
100
AcDbVisualStyle
  2
Shaded with edges
 70
    26
177
     2
291
     0
 71
     2
176
     1
 72
     2
176
     1
 73
     1
176
     1
 90
        2
176
     1
 40
0.6
176
     1
 41
30.0
176
     1
 63
     7
421
 16777215
176
     1
 74
     1
176
     1
 91
       10
176
     1
 64
     7
176
     1
 65
   257
176
     1
 75
     2
176
     1
175
     1
176
     1
 42
1.0
176
     1
 92
        8
176
     1
 66
   257
176
     1
 43
1.0
176
     1
 76
     1
176
     1
 77
     6
176
     1
 78
     2
176
     1
 67
     7
176
     1
 79
     3
176
     1
170
     0
176
     1
171
     0
176
     1
290
     0
176
     1
 93
        5
176
     1
 44
0.0
176
     1
173
     0
176
     1
  0
VISUALSTYLE
  5
3A
102
{ACAD_REACTORS
330
29
102
}
330
29
100
AcDbVisualStyle
  2
Shades of Gray
 70
    23
177
     2
291
     0
 71
     2
176
     1
 72
     2
176
     1
 73
     3
176
     1
 90
        0
176
     1
 40
0.6
176
     1
 41
30.0
176
     1
 63
     7
421
 16777215
176
     1
 74
     2
176
     1
 91
        2
176
     1
 64
     7
176
     1
 65
     7
176
     1
 75
     1
176
     1
175
     1
176
     1
 42
40.0
176
     1
 92
        8
176
     1
 66
     7
176
     1
 43
1.0
176
     1
 76
     1
176
     1
 77
     6
176
     1
 78
     2
176
     1
 67
     7
176
     1
 79
     3
176
     1
170
     0
176
     1
171
     0
176
     1
290
     0
176
     1
 93
        1
176
     1
 44
0.0
176
     1
173
     0
176
     1
  0
VISUALSTYLE
  5
3B
102
{ACAD_REACTORS
330
29
102
}
330
29
100
AcDbVisualStyle
  2
Sketchy
 70
    24
177
     2
291
     0
 71
     1
176
     1
 72
     2
176
     1
 73
     2
176
     1
 90
        0
176
     1
 40
0.6
176
     1
 41
30.0
176
     1
 63
     7
421
 16777215
176
     1
 74
     2
176
     1
 91
        2
176
     1
 64
     7
176
     1
 65
     7
176
     1
 75
     1
176
     1
175
     1
176
     1
 42
40.0
176
     1
 92
       11
176
     1
 66
     7
176
     1
 43
1.0
176
     1
 76
     1
176
     1
 77
     6
176
     1
 78
     2
176
     1
 67
     7
176
     1
 79
     6
176
     1
170
     0
176
     1
171
     0
176
     1
290
     0
176
     1
 93
        1
176
     1
 44
0.0
176
     1
173
     0
176
     1
  0
VISUALSTYLE
  5
36
102
{ACAD_REACTORS
330
29
102
}
330
29
100
AcDbVisualStyle
  2
Thicken
 70
    13
177
     2
291
     1
 71
     2
176
     1
 72
     2
176
     1
 73
     0
176
     1
 90
        0
176
     1
 40
0.6
176
     1
 41
30.0
176
     1
 63
     7
421
 16777215
176
     1
 74
     1
176
     1
 91
        4
176
     1
 64
     7
176
     1
 65
   257
176
     1
 75
     1
176
     1
175
     1
176
     1
 42
1.0
176
     1
 92
       12
176
     1
 66
     7
176
     1
 43
1.0
176
     1
 76
     1
176
     1
 77
     6
176
     1
 78
     2
176
     1
 67
     7
176
     1
 79
     5
176
     1
170
     0
176
     1
171
     0
176
     1
290
     0
176
     1
 93
        1
176
     1
 44
0.0
176
     1
173
     0
176
     1
  0
VISUALSTYLE
  5
30
102
{ACAD_REACTORS
330
29
102
}
330
29
100
AcDbVisualStyle
  2
Wireframe
 70
     5
177
     2
291
     0
 71
     0
176
     1
 72
     2
176
     1
 73
     0
176
     1
 90
        0
176
     1
 40
0.6
176
     1
 41
30.0
176
     1
 63
     7
421
 16777215
176
     1
 74
     1
176
     1
 91
        4
176
     1
 64
     7
176
     1
 65
   257
176
     1
 75
     1
176
     1
175
     1
176
     1
 42
1.0
176
     1
 92
        0
176
     1
 66
   257
176
     1
 43
1.0
176
     1
 76
     1
176
     1
 77
     6
176
     1
 78
     2
176
     1
 67
     7
176
     1
 79
     3
176
     1
170
     0
176
     1
171
     0
176
     1
290
     0
176
     1
 93
        1
176
     1
 44
0.0
176
     1
173
     0
176
     1
  0
VISUALSTYLE
  5
3C
102
{ACAD_REACTORS
330
29
102
}
330
29
100
AcDbVisualStyle
  2
X-Ray
 70
    25
177
     2
291
     0
 71
     2
176
     1
 72
     2
176
     1
 73
     1
176
     1
 90
        1
176
     1
 40
0.5
176
     1
 41
30.0
176
     1
 63
     7
421
 16777215
176
     1
 74
     1
176
     1
 91
        0
176
     1
 64
     7
176
     1
 65
   257
176
     1
 75
     1
176
     1
175
     1
176
     1
 42
1.0
176
     1
 92
        8
176
     1
 66
     7
176
     1
 43
1.0
176
     1
 76
     1
176
     1
 77
     6
176
     1
 78
     2
176
     1
 67
     7
176
     1
 79
     3
176
     1
170
     0
176
     1
171
     0
176
     1
290
     0
176
     1
 93
       13
176
     1
 44
0.0
176
     1
173
     0
176
     1
  0
DICTIONARYVAR
  5
489
102
{ACAD_REACTORS
330
485
102
}
330
485
100
DictionaryVariables
280
     0
  1
1:1
  0
DICTIONARYVAR
  5
487
102
{ACAD_REACTORS
330
485
102
}
330
485
100
DictionaryVariables
280
     0
  1
STANDARD
  0
DICTIONARYVAR
  5
486
102
{ACAD_REACTORS
330
485
102
}
330
485
100
DictionaryVariables
280
     0
  1
STANDARD
  0
DICTIONARYVAR
  5
48B
102
{ACAD_REACTORS
330
485
102
}
330
485
100
DictionaryVariables
280
     0
  1
1
  0
DICTIONARYVAR
  5
48C
102
{ACAD_REACTORS
330
485
102
}
330
485
100
DictionaryVariables
280
     0
  1
15
  0
DICTIONARYVAR
  5
48A
102
{ACAD_REACTORS
330
485
102
}
330
485
100
DictionaryVariables
280
     0
  1
0
  0
DICTIONARYVAR
  5
488
102
{ACAD_REACTORS
330
485
102
}
330
485
100
DictionaryVariables
280
     0
  1
0
  0
DICTIONARY
  5
1A
330
19
100
AcDbDictionary
280
     1
281
     1
  3
BUMPTILE
360
1C
  3
DIFFUSETILE
360
1B
  3
OPACITYTILE
360
1F
  3
REFLECTIONTILE
360
1E
  3
REFRACTIONTILE
360
20
  3
SPECULARTILE
360
1D
  0
DICTIONARY
  5
12
330
11
100
AcDbDictionary
280
     1
281
     1
  3
BUMPTILE
360
14
  3
DIFFUSETILE
360
13
  3
OPACITYTILE
360
17
  3
REFLECTIONTILE
360
16
  3
REFRACTIONTILE
360
18
  3
SPECULARTILE
360
15
  0
DICTIONARY
  5
22
330
21
100
AcDbDictionary
280
     1
281
     1
  3
BUMPTILE
360
24
  3
DIFFUSETILE
360
23
  3
OPACITYTILE
360
27
  3
REFLECTIONTILE
360
26
  3
REFRACTIONTILE
360
28
  3
SPECULARTILE
360
25
  0
DICTIONARY
  5
48E
330
64
100
AcDbDictionary
280
     1
281
     1
  3
ACAD_ROUNDTRIP_2008_TABLESTYLE_CELLSTYLEMAP
360
48F
  0
XRECORD
  5
1C
102
{ACAD_REACTORS
330
1A
102
}
330
1A
100
AcDbXrecord
280
     1
270
     1
271
     1
  0
XRECORD
  5
1B
102
{ACAD_REACTORS
330
1A
102
}
330
1A
100
AcDbXrecord
280
     1
270
     1
271
     1
  0
XRECORD
  5
1F
102
{ACAD_REACTORS
330
1A
102
}
330
1A
100
AcDbXrecord
280
     1
270
     1
271
     1
  0
XRECORD
  5
1E
102
{ACAD_REACTORS
330
1A
102
}
330
1A
100
AcDbXrecord
280
     1
270
     1
271
     1
  0
XRECORD
  5
20
102
{ACAD_REACTORS
330
1A
102
}
330
1A
100
AcDbXrecord
280
     1
270
     1
271
     1
  0
XRECORD
  5
1D
102
{ACAD_REACTORS
330
1A
102
}
330
1A
100
AcDbXrecord
280
     1
270
     1
271
     1
  0
XRECORD
  5
14
102
{ACAD_REACTORS
330
12
102
}
330
12
100
AcDbXrecord
280
     1
270
     1
271
     1
  0
XRECORD
  5
13
102
{ACAD_REACTORS
330
12
102
}
330
12
100
AcDbXrecord
280
     1
270
     1
271
     1
  0
XRECORD
  5
17
102
{ACAD_REACTORS
330
12
102
}
330
12
100
AcDbXrecord
280
     1
270
     1
271
     1
  0
XRECORD
  5
16
102
{ACAD_REACTORS
330
12
102
}
330
12
100
AcDbXrecord
280
     1
270
     1
271
     1
  0
XRECORD
  5
18
102
{ACAD_REACTORS
330
12
102
}
330
12
100
AcDbXrecord
280
     1
270
     1
271
     1
  0
XRECORD
  5
15
102
{ACAD_REACTORS
330
12
102
}
330
12
100
AcDbXrecord
280
     1
270
     1
271
     1
  0
XRECORD
  5
24
102
{ACAD_REACTORS
330
22
102
}
330
22
100
AcDbXrecord
280
     1
270
     1
271
     1
  0
XRECORD
  5
23
102
{ACAD_REACTORS
330
22
102
}
330
22
100
AcDbXrecord
280
     1
270
     1
271
     1
  0
XRECORD
  5
27
102
{ACAD_REACTORS
330
22
102
}
330
22
100
AcDbXrecord
280
     1
270
     1
271
     1
  0
XRECORD
  5
26
102
{ACAD_REACTORS
330
22
102
}
330
22
100
AcDbXrecord
280
     1
270
     1
271
     1
  0
XRECORD
  5
28
102
{ACAD_REACTORS
330
22
102
}
330
22
100
AcDbXrecord
280
     1
270
     1
271
     1
  0
XRECORD
  5
25
102
{ACAD_REACTORS
330
22
102
}
330
22
100
AcDbXrecord
280
     1
270
     1
271
     1
  0
CELLSTYLEMAP
  5
48F
102
{ACAD_REACTORS
330
48E
102
}
330
48E
100
AcDbCellStyleMap
 90
        3
300
CELLSTYLE
  1
TABLEFORMAT_BEGIN
 90
        5
170
     1
 91
        0
 92
    32768
 62
   257
 93
        1
300
CONTENTFORMAT
  1
CONTENTFORMAT_BEGIN
 90
        0
 91
        0
 92
      512
 93
        0
300

 40
0.0
140
1.0
 94
        5
 62
     0
340
55
144
0.25
309
CONTENTFORMAT_END
171
     0
 94
        0
309
TABLEFORMAT_END
  1
CELLSTYLE_BEGIN
 90
        1
 91
        1
300
_TITLE
309
CELLSTYLE_END
300
CELLSTYLE
  1
TABLEFORMAT_BEGIN
 90
        5
170
     1
 91
        0
 92
        0
 62
   257
 93
        1
300
CONTENTFORMAT
  1
CONTENTFORMAT_BEGIN
 90
        0
 91
        0
 92
      512
 93
        0
300

 40
0.0
140
1.0
 94
        5
 62
     0
340
55
144
0.18
309
CONTENTFORMAT_END
171
     0
 94
        0
309
TABLEFORMAT_END
  1
CELLSTYLE_BEGIN
 90
        2
 91
        1
300
_HEADER
309
CELLSTYLE_END
300
CELLSTYLE
  1
TABLEFORMAT_BEGIN
 90
        5
170
     1
 91
        0
 92
        0
 62
   257
 93
        1
300
CONTENTFORMAT
  1
CONTENTFORMAT_BEGIN
 90
        0
 91
        0
 92
      512
 93
        0
300

 40
0.0
140
1.0
 94
        2
 62
     0
340
55
144
0.18
309
CONTENTFORMAT_END
171
     0
 94
        0
309
TABLEFORMAT_END
  1
CELLSTYLE_BEGIN
 90
        3
 91
        2
300
_DATA
309
CELLSTYLE_END
  0
ENDSEC
  0
EOF
